No Need To Argue Album

Cranberries

E-2---|-2---|-2---|-2---|-2---|-2---|-2---|-------|

B---3-|---3-|---2-|---3-|---3-|---3-|---2-|-3-----|

G-----|-----|-----|-----|-----|-----|-----|---2---|

D-----|-----|-----|-----|-----|-----|-----|-----4-|

B-3-----3---3-----|-3-----3---3-----|-2-----2---2-----|

G---2-----2---2---|---4-----4---4---|---2-----2---2---|

D-----4---------4-|-----4---------4-|-----4---------4-|

B-3--------------------|

G---2---2h4p2-2h4p2-24-|

D-----4----------------|

G---3-----3-|

D-3-----3---|

G-3-3-etc-|---------|---------|---------|

D---------|-3-3-etc-|-5-5-etc-|-1-1-etc-|

G-3-5-3-5-3-3-|-------------|-------------|-------------|

D-------------|-3-5-3-5-3-3-|-5-7-5-7-5-5-|-1-3-1-3-1-1-|

E---3-----|-1-2-1-|---3-----|---3-----|

B-3---3---|-------|-3---3---|-3---3---|

G-------3-|-------|-------3-|-------3-|

G-3-3---3-3-3-|

D-----3-------|






G-5-7-|-5-7-|-5-7-|-----|

D-----|-----|-----|-3-5-|

E---0-----0--------|-0------0-------|---------------|

B-----3--------3---|---3--------3---|-3-----3-------|

G-------4--------4-|----------------|---5-------5---|

D------------------|-----5--------5-|-----5-------5-|

E-0-------|

B---3---3-|

G---------|

D-----5---|

E-7/8-5/7-3/5-|-2/3\2-------|

B-------------|-------3-3-0-|

E-0-----|

B---3---|

G-----0-|

E-7-7-7-|-7/8-5-7-7-7-7-|-7/8-5-7-7-7-7-|-7/8-5-7-7-7-7-|

B-------|---------------|---------------|---------------|

E-7/8-5-7-7-7-7-|

B---------7-7-7-|

E-7/8-5-7-7-7-7-|-7/8-5-7-7-7-7-|-7/8-5-7-7-7-7-|-7\5-5/7/10-|

B-7/8-5-7-7-7-7-|-7/8-5-7-7-7-7-|-7/8-5-7-7-7-7-|-7\5-5/7/10-|

-10/12-12-12-12-12-12\10-10-10-|-10/12-12-12-12-12-12\10-10-10-|

-10/12-12-12-12-12-12\10-10-10-|-10/12-12-12-12-12-12\10-10-10-|

-10/12-12-12-12-12-12\10-10-10-|-10/12-12-12-12-12-12\10-10\7-7-|

-10/12-12-12-12-12-12\10-10-10-|-10/12-12-12-12-12-12\10-10\7-7-|

-7/8-5-7-7-7-7-|-7/8-5-7-7-7-7-|-7/8-5-7-7-7-7-|-7\5-5-|-0-|

-7/8-5-7-7-7-7-|-7/8-5-7-7-7-7-|-7/8-5-7-7-7-7-|-7\5-5-|-0-|

B---5----5----|---4----4----|---2----2----|---2----2----|

G-2---4----4--|-1---4----4--|-2---4----4--|-2---4----4--|

E---------3-------|---3-----|---------3-------|---3-----|

B-------3---3-----|-4---4---|-------3---3-----|-3---3---|

G-----3-------3---|-------3-|-----3-------3---|-------3-|

D---5-----------5-|---------|---5-----------5-|---------|

A-6---------------|---------|-5---------------|---------|

E---------3-------|---3-----|---------3-------|---3-----|

B-------4---4-----|-4---4---|-------3---3-----|-3---3---|

G-----5-------5---|-------5-|-----3-------3---|-------3-|

D---5-----------5-|---------|---3-----------3-|---------|

A-3---------------|---------|-----------------|---------|

E-----------------|---------|-6---------------|---------|

E-10h11-10--------|--|-10h11-10-------|---|------------|

B----------11-8-8-|--|----------11-8--|-8-|-8-9-8-6----|

G-----------------|--|----------------|---|---------7--|

E-10h11-10------------|

B-----------11-8-8h11-|

E--0----0---|

B----0----0-|

E-10\3-|--|-5/12-|

B-10\3-|--|-5/12-|


 B5
    Verse Chord Progression:
|G|D|C|B5|
Chorus:
|C|Em|
Fill One:
E-10-10-10-10-8-7---|
B-----------------8-|

Fill Two:
E-7-7-7-7-|5-5-5-5-|-8-8-8-8-|-7-7-7-7-|

Words:
Disappointment
You shouldn't have done
You couldn't have done
You wouldn't have done
The things you did then
And we could've been happy
What a piteous thing
A hideous thing
Was dangered by the rest
But it won't get any harder
And I hope you find your way again
And it won't get any higher
But it all boils down to what you did
Then
In the night we fight, I fled, you're right
It was exactly then, it was exactly then
I decided, decided, decided, decided
And drew you out
In the night we fight, I fled, you're right
It was exactly then, it was exactly then
I decided, decided, decided, decided
But it won't be any harder
And I hope you find your way again
And it won't get any higher
But it all boils down to what you did
Then
Disappointment
RIDICULOUS THOUGHTS
By N. Hogan and D. O'Riordan
Intro Riff:
B-5-----5-----5-|-8------8------8-|-3-----3-----3-|
G---6-----6-----|---7------7------|---4-----4-----|
D-----7-----7---|-----(7)----(7)--|-----5-----5---|
B-1-----1-----1-|
G---2-----2-----|
D-----3-----3---|

Then hold: A
Verse Chord Progression:
|A|C|G|G|
Pre-Chorus Chord Progression:
|A|C|A|C|A|C|G|G|
Chorus Chord Progression:
|F|G|A|E(A)| Replace E with A at building points.
Words:
Twister, oh, does anyone see through you
You're a twister, oh, na na na
But you're happy now
I didn't go along with you
So happy now, na na na
But you're going to have to hold on
You're going to have to hold on
You're going to have to hold on
Hold on, hold on
Or we're going to have to move on
We're going to have to move on
Or we're going to have to move on
Move on, move on
I fell alright
And I cried so hard
The ridiculous thoughts, oh
I feel alright
Twister, oh, I shouldn't have twisted you
Twister, oh, na na na
It's not going to happen now
You're not going to make fun of me
Happen now, na na na
But you're going to have to hold on
You're going to have to hold on
But you're going to have to hold on
Hold on, hold on
Or we're going to have to move on
We're going to have to move on
Or we're going to have to move on
Move on, move on
I feel alright
And I cried so hard
The ridiculous thoughts, oh
I feel alright
You should have lied
But I cried so hard
The ridiculous thoughts, oh
You should have lied
But you're going to have to hold on
You're going to have to hold on
Hold on
To me
DREAMING MY DREAMS
By D. O'Riordan
Chord Progression:
|C|G|C|F|
Fill:
E---0-----0-|---3-----3-|---0-0---0-|-1-|
B-1---1-1---|-3---3-3---|-1-----1---|---|

Words:
All the things you said to me today
Changed my perspective in every way
These things count to mean so much to me
Into my faith you and your baby
It's out there, it's out there
It's out there, if you want me I'll be here
It's out there, it's out there
It's out there, if you want me I'll be here
I'll be dreaming my dreams with you
I'll be dreaming my dreams with you
And there's no other place
That I'd lay down my face
I'll be dreaming my dreams with you
It's out there, it's out there
It's out there, if you want me I'll be here
It's out there, it's out there
It's out there, if you want me I'll be here
I'll be dreaming my dreams with you
I'll be dreaming my dreams with you
And there's no other place
That I'd lay down my face
I'll be dreaming my dreams with you
YEAT'S GRAVE
By D. O'Riordan
Intro Riffs:
Guitar One:
E---8---|---6---|---3---|---3---|
B-8---8-|-6---6-|-3---3-|-3---3-|

Guitar Two:
G---5---|---3---|-------|-------|
D-5---5-|-3---3-|---5---|---5---|
A-------|-------|-5---5-|-5---5-|

Chord Progression:
|Cm|Bb|Gm|Gm|
Chorus Riff:
E-8-8-8-8-8-8-8-|-8-8-8-8-8-8-8-|-6-6-|-6-6-|
B-8-8-8-8-8-8-8-|-8-8-8-8-8-8-8-|-8-8-|-8-8-|
G-8-8-8-8-8-8-8-|-8-8-8-8-8-8-8-|-7-7-|-7-7-|

Fill One:
A-3-5-6-5-3-1-

Fill Two:
E---------8-----|---------8-----|-8-----------|
B-----------8---|-----------8---|---8---8-----|
G-------8-----8-|-------8-----8-|-----8---8---|
D----10---------|----10---------|-----------8-|
A-10------------|-10------------|-------------|
E-------------|
B-8-----8-----|
G---8-----8---|
D-----8-----8-|
A-------------|

End On: Cm
Words:
Silenced by death in the grave
Well W.B. Yeat couldn't save
Why did you stand here
Were you sickened in time
But I know by now
Why did you sit here
In the grave
Why should I blame her
That she filled my days with misery
Or she that of late
Have taught to ignorant men most violent ways
Or hurled the litter streets upon the grave
Had they but courage equal to desire
Sad that Maud Gonne couldn't stay
But she had MacBride anyway
And you sit here with me
On the isle Luistree
And you're waiting down anything
But I know by now
Why did you sit here
In the grave
Why should I blame her
Had they but courage equal to desire
DAFFODIL LAMENT
By D. O'Riordan
PART ONE
Verse Riff:
G-------3-----|-------3-----|-------3-----|-------3-----|
D-----5---5---|-----5---5---|-----3---3---|-----3---3---|
A---5-------5-|---5-------5-|---5-------5-|---3-------3-|
E-3-----------|-3-----------|-6-----------|-1-----------|

Measures in Verse Riff are occasionaly replaced by:
G---------3-------|
D-------5---5-----|
A-----5-------3h5-|
E-(_)-------------|

Chord Progression:
|Gm|Gm|Bb|F|
Chorus Riff:
D-5-5-5-3-3-3-|-1-1-1-------|----------|-----|
A-------------|-------5-5-5-|-3-3-3-5--|-(5)-|

Words:
Holding on
That's what I do since I met you
And it won't be long
Whould you notice if I left you
And in spite for some
Cause you're not the one
You're not the one
There
All night long
I laid on my pillow
These things are wrong
I can't sleep here
So lonely, so lonely
TRANSITION
Chord: Gm
Riff:
D-----5-------|
A---5---5-3h5-|
E-3-----------|

PART TWO
Verse Riff:
E---6-----5---|---3-----------|
B-6---6-6---6-|-6---6-6p4-3-4-|

Chord Progression:
|Bb|F|Gm|F|
Fill:
A-10-|-8-|-6-|-5-|

End On: Bb
Words:
I have decided to leave you forever
I have decided to start things from new
Thunder and lightning won't change what I'm feeling
And the daffodils look lovely today
Look lovely today
Oh in your eyes I can see the disguise
Oh in your eyes I can see the dismay
Has anyone seen lightning
Has anyone looked lovely
And the daffodils look lovely today
Look lovely
NO NEED TO ARGUE
By D. O'Riordan
NOTE:This song is just vocals and organ,
but here's the chords anyway.
|C|(C)|F|G|C|
 CFGC
 Theres no need to argue anymore
 FGC
I gave all I could but you left me so sore
 FG
And the thing that makes me mad
 CAm
Is the one thing that I had
 FGC
Cause I knew, I knew I'd loose you
 AmF
You'll always be special to me
 GC
Special to me, to me
 FGC
An I remember all the things we once shared
 FGC
Watching TV movies on a living room armchair
 FG
They said it'll work out fine
 CAm
Was it all a waste of time
 FGC
Cause I knew, I knew I'd loose you
 AmF
You'll always be special to me
 GC
Special to me, to me
 AmG
 Will I forget in time 
 AmG
 You said I was on your mind 
 AmG
 There's no need to argue
 FGCAm
 No need to argue anymore 
 FGC
There's no need to argue anymore


Am B5 C F G
variations - click chord images
Transpose chords:
Tuning:
Cool service:
View: Size:
A  A  A
Rating:
Layout:
  • Currently 2.8/5 Stars.
  • 1
  • 2
  • 3
  • 4
  • 5
 
Accuracy:
  • Currently 2.8/5 Stars.
  • 1
  • 2
  • 3
  • 4
  • 5
 
click stars to rate
Chordie recommends:
Learn how to play guitar at JamPlay.com
Songbook:
Login to add this song to your songbook
Support the artist
Preview/buy this song
MSN Music
Why this non-profit ad?

 
login to add comments/video/corrections