Chordie logo

Yeats Grave  Cranberries

    [Am]          [G6]          [Em]                                                           
E------0---------0------------------0----------------------------------------
B---1-----1---0-----0------0-------------------------------------------------
G------2---------0------0-----0--0-----0-------------------------------------
D---2-----2---0-----0------2--------2----------------------------------------
A-----------------------2-----2--2-----2-------------------------------------
E----------------------------------------------------------------------------

... and chords of the song is as follows
G6 320000
[Am]Silenced by [G6]death in the g[Em]rave
[Am]W B [G6]Yeats couldn't s[Em]ave
[Am]Why did you [G6]stand here
[G6]Were you s[Em]ickened in time
[Em]But I know by [Am]now
[Am]Why did you [G6]sit here?
[Em]In the [Am]grave[G6]
[G6]In the GR[Em]aVE
W. B. Yeats "Second"
Why should I blame her,
there she filled my days
With misery or that she would of late
Have taught to ignor can't man violent ways
Or harled the little streets upon the grenout
Had they but courage
Equal to desire
Sad there Mand Gonne couldn't stay
But she had MacBride anyway
and you sit here with me
on the isle In istree
and your writing down everything
But I know by now
Why did you sit here
In the grave...
Why should I blAme her,
Had they but courage equal to desire
------------------------------------------------------------------------------

This is also a wonderful song from The Cranberries
How can she write so well?
Baris Seker
------------------------------------------------------------------------------				


Important: The song above is NOT stored on the Chordie server. The original song is hosted at www.guitaretab.com. Chordie works as a search engine and provides on-the-fly formatting. Chordie does not index songs against artists/composers will. To remove this song please click here.

Am Em G6
variations - click chord images

Login - add to songbook

Transpose chords

Tuning

Rating click stars to rate

Layout
Accuracy

SHARE PAGE  

You need to log in to post comments