Guitar Tabs, Chords and Lyrics


Androgynous  Crash Test Dummies



       [G]                    [D]         [Em] [C] 
E|----3--3-------3--3-----2--2-----2--2-----0--0-----0--0-----0--0-------0--0-|
B|----3--3-------3--3-----3--3-----3--3-----0--0-----0--0-----1--1-------1--1-|
G|----0--0-------0--0-----2--2-----2--2-----0--0-----0--0-----0--0-------0--0-|
D|----0--0-------0--0--0-----0-----0--0-----2--2-----2--2-----2--2--0p2-----2-|
A|----2--2--0p2-----2-----------0-----------2--2--2-----2--3-----3----------3-|
E|-3-----3----------3--------------------0-----0--------0---------------------|

      [d]   [u]        [d]   [u]      [d]   [u]      [d] [u] [d] [u] [d] [u] [d] [u] [d] [u] 
d means strum down
u means strum up

Sorry I don't have the chorus.
Corrections and/or comments are welcome.


Dave Hornidge
(dave@skatter.usask.ca)

From: bmauch@unixg.ubc.ca (Brian Mauch)

ANDROGYNOUS
written by The Replacements
as performed by the Crash Test Dummies

Play with capo on 3rd fret.

Intro and verse in tablature:

      [G]                    [D]          [Em] [C] 
E|----3--3-------3--3-----2--2-----2--2-----0--0-----0--0-----0--0-------0--0-|
B|----3--3-------3--3-----3--3-----3--3-----0--0-----0--0-----1--1-------1--1-|
G|----0--0-------0--0-----2--2-----2--2-----0--0-----0--0-----0--0-------0--0-|
D|----0--0-------0--0--0-----0-----0--0-----2--2-----2--2-----2--2--0h2-----2-|
A|----2--2--0h2-----2-----------0-----------2--2--2-----2--3-----3----------3-|
E|-3-----3----------3--------------------0-----0--------0---------------------|

      [d]   [u]        [d]   [u]      [d]   [u]      [d] [u] [d] [u] [d] [u] [d] [u] [d] [u] 
d means strum down, u means strum up.

Intro:
[G]       [D]       [Em]       [C]                
Verse:
[G]Here comes Dick, he's [D]wearing a skirt
[Em]Here comes Jane you know she's [C]sportin' a chain
[G]Same hair, a revolution
[D]Same build, evolution
[Em]Tomorrow who's gonna [C]fuss?
And they [D]love each other so, [C]androgy[G]nous
[D]Closer than you know, [C]love each other so, androgynous

Well don't get him wrong, and don't get him mad
He might be a father but he sure ain't a dad
And she don't need the advice that is sent to her
She's happy with the way she looks, she's happy with her gender
And they love each other so, androgynous
Closer than you know, love each other so, androgynous

Bridge:
[C]Mirror image, see no damage, see no evil at [Em]all
[C]Cupie dolls and urine stalls will be [Em]laughed at
The way you're [D]laughed at now

Something meets boy and something meets girl
They both look the same, they're overjoyed in this world
Same hair a revolution
Unisex evolution
Tomorrow who's gonna fuss?

And tomorrow Dick is wearing pants,
Tomorrow Jane is wearing a dress
Future outcasts and they don't last
And today people dress the way that they please
They way they tried to do in the last centuries

And they love each other so, androgynous
Closer than you know, love each other so, androgynous

[---]Compiled by Brian Mauch
with help from Dave Hornidge and Peter Palmer

Important: The song above is NOT stored on the Chordie server. The original song is hosted at www.guitaretab.com. Chordie works as a search engine and provides on-the-fly formatting. Chordie does not index songs against artists'/composers' will. To remove this song please click here.

Text color:
Chord color:
Chord grids: 
Font size:    
Page size: 

C D Em G
variations - click chord images

Login - add to songbook

Transpose chords

Tuning

Rating click stars to rate

Layout
Accuracy

SHARE PAGE  




You need to log in to post comments