Chordie logo


Akademik Intyro   Crazy Shoes Killers



ARTIST: Crazy Shoes Killers
SONG: Akademik Intyro
YEAR: 2006
SITE: www.CSK.gog.pl
TUNING: D G C F A D

RIFF1                            x3
D||---------------|---------------|---------------|---------------||
A||---------------|---------------|---------------|---------------||
F||---------------|---------------|---------------|---------------||
C||---------------|-3-2-----------|------------2--|--2--2--2------||
G||----------2-0--|-----3-2-0-----|----------2-0--|--X--X--X------||
D||-0-00-3-5------|---------------|-0-00-3-5------|--3--2--1------||

RIFF2                            x3
D||---------------|---------------|---------------|---------------||
A||---------------|---------------|---------------|---------------||
F||---------------|-0-00000-3-2-0-|---------------|-0-00000-320---||
C||-0-00X00-----2-|-2-22X22-------|-0-00X00-----2-|-2-22X22----20-||
G||-2-22X22-2-4---|-0-00X00-------|-2-22X22-2-4---|-0-00X00------2||
D||-0-00X00-------|-0-00X00-------|-0-00X00-------|-0-00X00-------||

RIFF3                            x3
D||-0-000-00-00-0-|-0-000-00-00-0-|-0-000-00-00-0-|-0-000-00-00-0-||
A||-0-000-00-00-0-|-0-000-00-00-0-|-0-000-00-00-0-|-0-000-00-00-0-||
F||-0-000-00-00-0-|-0-000-00-00-0-|-0-000-00-00-0-|-0-000-00-00-0-||
C||-5-555-55-55-5-|-4-444-42-22-2-|-5-555-55-55-5-|-4-444-47-77-7-||
G||-7-777-77-77-7-|-5-555-50-00-0-|-7-777-77-77-7-|-5-555-58-88-8-||
D||-0-000-00-00-0-|-0-000-00-00-0-|-0-000-00-00-0-|-0-000-00-00-0-||

RIFF4                            
D||-0-000-00-00-0-|-0-000-00-00-0-||
A||-0-000-00-00-0-|-0-000-00-00-0-||
F||-1-111-11-11-1-|-0-000-00-00-0-||
C||-2-222-22-22-2-|-2-222-24-44-4-||
G||-2-222-22-22-2-|-3-333-35-55-5-||
D||-0-000-00-00-0-|-3-333-35-55-5-||

the song:
riff 1
riff 2
riff 3
riff 2
riff 3
riff 4



Important: The song above is NOT stored on the Chordie server. The original song is hosted at www.guitaretab.com. Chordie works as a search engine and provides on-the-fly formatting. Chordie does not index songs against artists/composers will. To remove this song please click here.

This song is displayed as text-only. Transposing and tuning is only available for chordpro-songs.

Login - add to songbook

Rating click stars to rate

Layout
Accuracy

SHARE PAGE  




You need to log in to post comments