Guitar Tabs, Chords and Lyrics


Only When Im Drunk   Crazy Town



Author/Artist: Crazytown
Title: Only When I'm Drunk
Album: The Gift Of Game
Transcribed by: Benjamin Seet
Email: cold_static544@yahoo.co,uk
Tuning: DADGBE (drop d)
Very accurate

Intro and most parts of song
------------------------------------------------------------
------------------------------------------------------------
------------------------------------------------------------
-2-2-4-5-2-2-2--4-5-4---------------------------------------
-2-2-4-5-2-2-2--4-5-4---------------------------------------
-2-2-4-5-2-2-2--4-5-4---------------------------------------
                                                                              
Some parts of chorus (the 355 part use all upstrokes)
------------------------------------------------------------
------------------------------------------------------------
----5--------5-5-5-5----------------------------------------
-2--5--------5-5-5-5----------------------------------------
-2--3--------3-3-3-3----------------------------------------


Important: The song above is NOT stored on the Chordie server. The original song is hosted at www.guitaretab.com. Chordie works as a search engine and provides on-the-fly formatting. Chordie does not index songs against artists/composers will. To remove this song please click here.

This song is displayed as text-only. Transposing and tuning is only available for chordpro-songs.

Login - add to songbook

Rating click stars to rate

Layout
Accuracy

SHARE PAGE  




You need to log in to post comments