"yes"; ?> Dance The Night Away by Cream - guitar chords, guitar tabs and lyrics - chordie

Dance The Night Away

Cream

e|--------------------------|

B|---------------------7----|
G|----------5--------7---7--| x 2
D|-------5---------7--------|
A|-0--7--------7/9----------|
E|--------------------------|
e|----------12-------------14-------|
B|-------13-------------15----15----|
G|----12-------------14----------14-| x 2
D|-14----------14/16----------------|
A|----------------------------------|
E|----------------------------------|

 DmEmAmFEDCB
e|-1-------0-----------2-------2--------|
B|-3-------1---1---0---3---1---4--------|
G|-2---0---2---2---1---2---0---4--------|
D|-----2---2---3---2-------2---4--------|
A|-----2-------3---2-------3------------|
E|--------------------------------------|


(VERSE 1)
 DmEmAm
Gonna build myself a castle
(riff 1)
 DmEmAm
 High up in the clouds
 DmEmAm
There'll be skies outside my window
 FEmDmE
 Lose these streets and crowds
 EDCBAmDAmD
 Dance the night away         

(VERSE 2)
 DmEmAm
Will find myself an ocean
 DmEmAm
 Sail into the blue
 DmEmAm
 Live with golden swordfish
 FEmDmE
 Forget the time of you
 EDCBAmDAmD
 Dance the night away         

(VERSE 3)
 DmEmAm
 Dance myself to nothing
 DmEmAm
 Vanish from this place
 DmEmAm
Gonna turn myself to shadow
 FEmDmE
 So I can't see your face
 EDCBAmDAmD
 Dance the night away         

Am B C D Dm E Em F
variations - click chord images
Transpose chords:
Tuning:
Cool service:
View: Size:
A  A  A
Rating:
Layout:
  • Currently 0/5 Stars.
  • 1
  • 2
  • 3
  • 4
  • 5
 
Accuracy:
  • Currently 0/5 Stars.
  • 1
  • 2
  • 3
  • 4
  • 5
 
click stars to rate
Chordie recommends:
Learn to play this song & others via video guitar lessons at JamPlay.com
Songbook:
Login to add this song to your songbook
Support the artist
Preview/buy this song
MSN Music
Why this non-profit ad?

 
login to add comments/video/corrections