Chordie logo


Are You Ready   Creed



Song: Are you ready
CD: Human Clay  
Tunned: Drop D

Intro
E-|------------------------------------------------------------------|
B-|------------------------------------------------------------------|
G-|---------------------------------------------------2--------------|
D-|-----------------------------------------------------0------------|
A-|--3--5-5-3-5-5--3-5-5-5b-5-5--3-5-5-3-5-5-3---0--------1-1b3-1-3--|
D-|--0--0-0-0-0-0--0-0-0-0--0-0--0-0-0-0-0-0-0-0---0--------------0--|

Play this twice:
E-|--------------------------------------------------------|
B-|--------------------------------------------------------|
G-|--------------------------------------------------3-----|
D-|-----------------------------------------------1--3--3--|
A-|--3--5-5-3-5-5--3-5-5-5b-5-5--3-5-5-3-5-5-3----1--1--3--|
D-|--0--0-0-0-0-0--0-0-0-0--0-0--0-0-0-0-0-0-0-0--1-----3--|
                                                (Distortion)
Play this once:
E-|--------------------------------------------|
B-|--------------------------------------------|
G-|--------------------------------------------|
D-|--------------------------------------------|
A-|--3--5-5-3-5-5--3-5-5-5b-5-5--3-5-5-3-5-5b--|
D-|--0--0-0-0-0-0--0-0-0-0--0-0--0-0-0-0-0-0---|
End Intro

Verse: (Played Lower with Distortion)
Part 1:Play three times
E-|--------------------------------------------------------|
B-|--------------------------------------------------------|
G-|--------------------------------------------------3-----|
D-|-----------------------------------------------1--3--3--|
A-|--3--5-5-3-5-5--3-5-5-5b-5-5--3-5-5-3-5-5-3----1--1--3--|
D-|--0--0-0-0-0-0--0-0-0-0--0-0--0-0-0-0-0-0-0-0--1-----3--|

Part 2
E-|------------------------------------------------------------------|
B-|------------------------------------------------------------------|
G-|---------------------------------------------------2--------------|
D-|-----------------------------------------------------0------------|
A-|--3--5-5-3-5-5--3-5-5-5b-5-5--3-5-5-3-5-5-3---0--------1-1/3-1-3--|
D-|--0--0-0-0-0-0--0-0-0-0--0-0--0-0-0-0-0-0-0-0---0--------------0--|
End of Verse

Chorus:Play twice (Distortion)
E-|---------------------------------------------------------|
B-|--1--1--------------------------------------3------------|
G-|--0--0----------0h2--------------------------------------|
D-|--2--0--3---0-------0-2-3-2-------0--3-2-0-----0--3-2-0--|
A-|--3--2--3---0----------------2-3-------------------------|
D-|--------3---0--------------------------------------------|
End Chorus

Repeat Verse: Part 1 four times and then Chorus twice
1st Bridge:Play 6 times (Clean)
E-|-----5-3-2--------------------------------3------|
B-|--3----------0-1-0-------------------------------|
G-|--2--------2-------2--------2-----4---4-5---5-4--|
D-|--0------------------4-5-4----4-5---5------------|
A-|--0----------------------------------------------|
D-|-------------------------------------------------|

Play twice: (Distortion)
E-|-----5-3-2--------------------------------3------|
B-|--3----------0-1-0-------------------------------|
G-|--2--------2-------2--------2-----4---4-5---5-4--|
D-|--0------------------4-5-4----4-5---5------------|
A-|--0----------------------------------------------|
D-|-------------------------------------------------|

Email: Werdnaretsbew85@aol.com


Important: The song above is NOT stored on the Chordie server. The original song is hosted at www.guitaretab.com. Chordie works as a search engine and provides on-the-fly formatting. Chordie does not index songs against artists/composers will. To remove this song please click here.

This song is displayed as text-only. Transposing and tuning is only available for chordpro-songs.

Login - add to songbook

Rating click stars to rate

Layout
Accuracy

SHARE PAGE  




You need to log in to post comments