Guitar Tabs, Chords and Lyrics


One Last Breath   Creed



I figuered this out by ear so if you have any corrections e-mail me at Dexdk529@aol.com

Standard E tuning

Intro/Verse
e|------------------------------------------------------------------------------3--2-|
B|--7----10--5--7--5--3---2--3///5--3--2--3--------------------------------3--2------|
G|-------------------------------------------4---7---6--7--4--2---2--4--2------------|
D|-----------------------------------------------------------------------------------|
A|--5--5---5------------0------0-------------2--2--2---------------------------------|
E|--------------------------------------------------------------3--------------------|

e|--------------------------------------------------------------------------3--2-----|
B|--7---8---7--5h7p5--------------2h3p2-----------------7--5--------------3-----3--2-|
G|------------------------0--2--4-------0--2----4--6--7------7--4----2--4------------|
D|-----------------------------------------------------------------------------------|
A|--5--5---5---------2--0---------------------2--------------------------------------|
E|-----------------------------------------------------------------3-----------------|

These are the chords used and not all the strings are hit in the Pre-Chorus
  Pre-Chorus        Chorus        Interlude
e|--7--5--7--3-|-------------|-------------------|
B|--7--5--7--3-|-------------|-------------------|
G|--7--5--7--3-|--7----------|--------7----------|
D|--7--7--9--5-|--7--7--9--5-|--2--9--7--7--9--5-|
A|--5--7--9--5-|--5--7--9--5-|--2--9--5--7--9--5-|
E|--5--5--7--3-|-----5--7--3-|--0--7-----5--7--3-|


Important: The song above is NOT stored on the Chordie server. The original song is hosted at www.guitaretab.com. Chordie works as a search engine and provides on-the-fly formatting. Chordie does not index songs against artists/composers will. To remove this song please click here.

This song is displayed as text-only. Transposing and tuning is only available for chordpro-songs.

Login - add to songbook

Rating click stars to rate

Layout
Accuracy

SHARE PAGE  




You need to log in to post comments