Guitar Tabs, Chords and Lyrics


My Own Prison  Creed

  [Em]             [C]               [G]                                                                                
------------------------------3--------------------------------
----------------------1-------3--------------------------------
--0-----------------0---0-----0--------------------------------
--2---------------2-----------0-----------------0^2^0----------
--2------------/3-------------2-----------------------0--------
--0---------------------------3-------------------------3-2----

^ sometimes
this last note
doesn't appear
1.A court is in session, a verdict is in
No appeal on the docket today, Just my own sin
The walls are cold and pale, The cage made of steel
Screams fill the room, Alone I drop and kneel
Silence now the sound, My breath the only motion around
Demons cluttering around, My face showing no emotion
Shackled by my sentence, Expecting no return
Here there is no penance, My skin begins to burn
2.I hear a thunder in the distance, See a vision of a cross
I feel the pain that was given on that sad day of loss
A lion roars in the darkness, Only he holds the key
A light to free me from my burden and grant me life eternally
Chorus:
Should have been dead on a Sunday morning banging my head
No time for mourning, Ain't got no time
Prechorus
=========
[G] So I held my head up high
[G/F#] Hiding hate that burns insi[F]de
Which only fuels their selfish pr[E]ide
[G] We're all held captive out from the s[G/F#]un
A sun that shines only on s[F]ome
We the meek are all in o[E]ne
Solo:
=====
   [G]         [D]         [Em]          [C]                                                                                
------------3-3----------------3--3------------------
---0--0^1---------1--0----0^1--------1--0------------
-----------------------------------------------------
-----------------------------------------------------
-----------------------------------------------------
-----------------------------------------------------

   [G]         [D]         [Em]          [C]                                                                                
------------3-3----------------3-3-----3-------------
---0--0^1---------1--0----0^1-------1----------------
-----------------------------------------------------
-----------------------------------------------------
-----------------------------------------------------
-----------------------------------------------------

Outro
=====
I c[G]ry out to God, Seeking only his dec[D]ision
Gab[Em]riel stands and confirms I've created my own pr[C]ison
- - - - - - - - - - - - - - - - - - - - - - - - - - - - - - - - -

Fro99@juno.com
My Own Prison (Version 2)
Creed
My Own Prison
Tuning : 'Dropped-D' (DADGBE, low to high)
Here's the second version I did, because I don't think most
people like to tune down a whole step...You guys let me know
what you think.
Chords Used:
D : 000232
Bb5 : x133xx
F5 : 333xxx
C5 : x355xx
F5/E : 233xxx
Eb5 : 111xxx
Intro, Verse, and Chorus
========================
D Bb5 F5 (riff)
Here's the riff:
A---3-5-3-0--------------
D-----------3-2-0--------

Prechorus
=========
[F5]   [F5/E]     [Eb5]    [D]  Outro
=====
[F5]   [C5]   [D]  [Bb5]    Questions, comments, suggestions, and requests to
Fro
Fro99@juno.com

Important: The song above is NOT stored on the Chordie server. The original song is hosted at www.guitaretab.com. Chordie works as a search engine and provides on-the-fly formatting. Chordie does not index songs against artists/composers will. To remove this song please click here.

Text color:
Chord color:
Chord grids: 
Font size:    
Page size: 

Bb5 C C5 D E Eb5 Em F F5 F5/E G G/F#
variations - click chord images

Login - add to songbook

Transpose chords

Tuning

Rating click stars to rate

Layout
Accuracy

SHARE PAGE  




You need to log in to post comments