-----------------------------------------                            #   4

 #4CACACAGFF6FD
E |--0-0-0-0--0-0----|--0-0-0-0--0-0----|--0-0-0-0----3--1--|--1-1-1--1--2--|
B |--1-1-1-2--2-2-0--|--1-1-1-2--2-2-0--|--1-1-1-2----0--1--|--1-1-3--1--3--|
G |--0-0-0-2--2-2-0--|--0-0-0-2--2-2-0--|--0-0-0-2----0--2--|--2-2-2--2--2--|
D |--2-2-2-2--2-2-0--|--2-2-2-2--2-2-0--|--2-2-2-2----0--3--|--3-3-3--3--0--|
A |--3-3-3-0--0-0----|--3-3-3-0--0-0----|--3-3-3-0----2-----|---------------|
E |------------------|------------------|-------------3-----|---------------|

 D
Left a good job in the city
Working for the man every night and day
And I never lost one minute of sleepin'
Worryin' 'bout the way things might have been
 A
Big wheels keep on turnin'
 Bm
Proud Mary keep on burnin'
E |--------------------|
B |--------------------|
G |-----------2/4\2/4--|
D |-----0--2--2/4\2/4--|
A |--2-----------------|
E |--------------------|

 D
Rollin' , rollin'
Rollin' on the river
E |-------|-----------------|
B |--5/7--|--7--5--3--5--3--|
G |-------|-----------------|
D |--5/7--|--7--5--4--5--4--|
A |-------|-----------------|
E |-------|-----------------|

Cleaned a lot of plates in Memphis
Pumped a lot of pain in New Orleans
But I never saw the good side of the city
Until I hitched a ride on a river boat queen
Big wheels keep on turnin'...
If you come down to the river
Bet you gonna find some people who live
You don't have to worry 'cause you have no money
People on the river are happy to give
Big wheels keep on turnin'...
Solo :
 D
E |----------------2h3-2--|--2-2h3--2-2h3--2-3-2--|--3-2-3-2---------|
B |---------3-3----3------|--3-3----3-3----3-3-3--|--3-3-3-3------3--|
G |----2-4--2-2-2--2------|--2-2----2-2----2-2-2--|--2-2-2-2--2-2-2--|
D |--4--------------------|-----------------------|------------------|
A |-----------------------|-----------------------|------------------|
E |-----------------------|-----------------------|------------------|
E |--3/5-5--3--------|-------------2h3-2--|----2h3--2---3-2--|----2-------|
B |--5/7-7----3-0----|------0-3----3---3--|----3----3---3-3--|----3-------|
G |---------------2--|----2---2-2--2---2--|--2-2----2-2-2-2--|--2-2--2-2--|
D |------------------|--4-----------------|------------------|-------4-4--|
A |------------------|--------------------|------------------|------------|
E |------------------|--------------------|------------------|------------|

 ABm
E |--------|-----------------|-----------|--------------0--|------------|
B |--------|--------0-2-2-3--|--2-2-0-2--|--0-0-0-2-3-3----|-3-3-2-3-3--|
G |--2-----|--0h2-2----------|-----------|-----------------|------------|
D |--4--4--|-----------------|-----------|-----------------|------------|
A |-----5--|-----------------|-----------|-----------------|------------|
E |--------|-----------------|-----------|-----------------|------------|

*******************************************************************************
Keep rockin !
Max ( Max_Guitarplayer@hotmail.com )
*******************************************************************************









A Bm C D F F6 G
variations - click chord images
Transpose chords:
Tuning:
Cool service:
View: Size:
A  A  A
Rating:
Layout:
  • Currently 2.9/5 Stars.
  • 1
  • 2
  • 3
  • 4
  • 5
 
Accuracy:
  • Currently 3/5 Stars.
  • 1
  • 2
  • 3
  • 4
  • 5
 
click stars to rate
Chordie recommends:
Learn to play guitar with video-based, online guitar lessons at JamPlay.com
Songbook:
Login to add this song to your songbook
Support the artist
Preview/buy this song
MSN Music
Why this non-profit ad?

 
login to add comments/video/corrections