"yes"; ?> Up Around The Bend by Creedence Clearwater Revival - guitar chords, guitar tabs and lyrics - chordie

Up Around The Bend

Creedence Clearwater Revival

  -------------------------------------------------


 DAD
|--------10----------|--------10----------|-------5-------|--------10----------|
|-----------10----10-|-----------10----10-|---------5---5-|-----------10----10-|
|----9/11------11----|----9/11------11----|----4/6----6---|----9/11------11----|
|-0------------------|-0------------------|---------------|-0------------------|
|--------------------|--------------------|-0-------------|--------------------|
|--------------------|--------------------|---------------|--------------------|

 D
There's a place up ahead and I'm goin'
 AD
Just as fast as my feet can fly
 D
 Come away, come away if you're goin'
 AD
Leave the sinkin' ship behind
 GDA
Come on the risin' wind
 GDA
We're goin' up around the bend
Ooh!
Bring a song and a smile for the banjo
Better get while the gettin's good
Hitch a ride for the end of the highway
Where the neons turn to wood
Come on the risin' wind
We're goin' up around the bend
Ooh!
You can ponder perpetual motion
Fix your mind on a crystal day
Always time for a good conversation
There's an ear for what to say
Come on the risin' wind
We're goin' up around the bend
Yeah!
 DAD
|--------10----------|--------10----------|-------5-------|--------10----------|
|-----------10----10-|-----------10----10-|---------5---5-|-----------10----10-|
|----9/11------11----|----9/11------11----|----4/6----6---|----9/11------11----|
|-0------------------|-0------------------|---------------|-0------------------|
|--------------------|--------------------|-0-------------|--------------------|
|--------------------|--------------------|---------------|--------------------|

 GDAGD
E |------------------------|--------------------|-----------------------|
B |----------3-5b7--5p3----|---------5----------|----------3-5b7-5p3----|
G |-----2/4-------------4--|--2-4b6-----r(4)-2--|-----2/4------------4--|
D |--5---------------------|--------------------|--5--------------------|
A |------------------------|--------------------|-----------------------|
E |------------------------|--------------------|-----------------------|

 A
E |--------------------|-------------------||
B |---------5----------|-------------------||
G |--2-4b6-----r(4)-2--|--4b6-4b6-4b6r--2--||
D |--------------------|-------------------||
A |--------------------|-------------------||
E |--------------------|-------------------||                                                            

Catch a ride to the end of the highway
And we'll meet by the big red tree
E |--12b14r-p10------|--10------|--12b14r-p10------|----------|
B |--------------12--|----------|--------------12--|--10------|
G |------------------|----------|------------------|----------|
D |------------------|----------|------------------|----------|
A |------------------|----------|------------------|----------|
E |------------------|----------|------------------|----------|

There's a place up ahead and I'm goin'
Come along, come along with me
Come on the risin' wind
We're goin' up around the bend
Yeah!
 DAD
E |-------5-------5--|--(5)-------5-----|-------5-------5--|--(5)-------------||
B |--6h7-----6h7-----|-------6h7-----7--|--6h7-----6h7-----|-------7----------||
G |------------------|------------------|------------------|----------7-------||
D |------------------|------------------|------------------|------------------||
A |------------------|------------------|------------------|------------------||
E |------------------|------------------|------------------|------------------||

Doo doo doo doo Doo doo doo doo
*******************************************************************************
Keep rockin !
Max ( Max_Guitarplayer@hotmail.com )
*******************************************************************************

A D G
variations - click chord images
Transpose chords:
Tuning:
Cool service:
View: Size:
A  A  A
Rating:
Layout:
  • Currently 2.4/5 Stars.
  • 1
  • 2
  • 3
  • 4
  • 5
 
Accuracy:
  • Currently 2.2/5 Stars.
  • 1
  • 2
  • 3
  • 4
  • 5
 
click stars to rate
Chordie recommends:
Learn how to play guitar at JamPlay.com
Songbook:
Login to add this song to your songbook
Support the artist
Preview/buy this song
MSN Music
Why this non-profit ad?

 
login to add comments/video/corrections