Chordie logo
content loaded from cache

Hey Tonight  Creedence Clearwater Revival

Intro:--------------------------------------------------------------------|



e--12--9--7-------0--0--0--|    |----0----0---0----0----0----0----0----0--|


B--0------0--5-----2--0--|    |----0----0---0----0----0----0----0----0--|


G--------------------------| X3 |--4----4-------4-----4----4---------4----|


D--------------------------|    |--6----4---1---4-----6----4----1----4----|


A--------------------------|    |-----------2-------------------2---------|


E--------------------------|    |-----------------------------------------|






|---------------------------|  |-----0-----0-----0----0--|


|-----0-----0------0-----0--|  |-----2-----2-----2----2--|


|-----1-----1------1-----1--|  |--2-----2-----2-----2----|


|-----2-----2------2-----2--|  |--2-----2-----2-----2----|


|---------------------------|  |--0-----0-----0-----0----|


|--0-----0------0-----0-----|  |-------------------------|






|-----0-----0-----0-----0--|  


|-----0-----0-----0-----0--|  


|-----1-----1-----1-----1--|  


|--2-----2-----2-----2-----|  


|--2-----2-----2-----2-----|  


|--------------------------|  


Chorus: (follow rythm pattern)

|----------------------------------------------------|
|----------------------------------------------------|
|----------------------------------------------------|
|--4-4-6-4-4-4-6-4-4-4-6-4-4-4-6-4-4-4-6-4-4-4-6-4---|
|--2-2-2-2-2-2-2-2-2-2-2-2-4-4-4-4-4-4-4-4-4-4-4-4---|
|----------------------------------------------------|


[E1]Hey Tonight gonna be tonight don't change now I'm flyin' To-
[A]Night to-[E2]night
[E1]Hey Come on gonna change tomarrow to-
[A]night to-[E2]night

chorus:
Gonna get into the rafters watch me now
Jodie's gonna find religion all night long

[E1]Hey come on gonna hear the song
[A]tonight [E2]tonight

|-0--0--0---0-0--0--0--0--0--0--0--0--0--0--0--|
|-9-----10----9--5-----0-----0-----0-----0--0--|
|----------------------4-----2-----1-----1-----| X2
|----------------------------------------2-----|
|----------------------------------------------|
|----------------------------------------------|


A Pattern E Pattern A Pattern E Pattern

[B]ah [E1]hey tonight gonna be tonight
[A]tonight [E2]Tonight  [A]Tonight

Tonight
Ending: Play and Fade

             |---0-----0-----0-----0--|
             |---0-----0-----0-----0--|
             |-4----4-----1-----4-----|
             |-6----4-----2-----4-----|
             |------------------------|
             |------------------------|				


Important: The song above is NOT stored on the Chordie server. The original song is hosted at www.guitaretab.com. Chordie works as a search engine and provides on-the-fly formatting. Chordie does not index songs against artists/composers will. To remove this song please click here.

A B E2
variations - click chord images

Transpose chords

Tuning

Rating click stars to rate

Layout
Accuracy

SHARE PAGE  

You need to log in to post comments