""; ?> Wholl Stop The Rain by Creedence Clearwater Revival - guitar chords, guitar tabs and lyrics - chordie

Wholl Stop The Rain

Creedence Clearwater Revival

 4/4
  Gtr II
| | | | | | | | | | | | | | | | | | | | | |
Gtr I
let ring and reapeat when needed
|---------3-------|---------------|------------------|
|-0---------------|---------------|------------------|
|-----0-----------|--------%------|--------%---------|
|-----------------|---------------|------------------|
|-----------------|---------------|------------------|
|-----------------|---------------|------------------|


 EmDG
                                      | | | | |  |    | | | | | | | |   | | | | | | | |
|---------------|-----------------|------------------|
|---------------|-----------------|------------------|
|------%--------|--------%--------|---------%--------|
|---------------|-----------------|------------------|
|---------------|-----------------|------------------|
|---------------|-----------------|------------------|


Verse:
 GC
||--------------|------------|-------------------|
||o-------------|------------|-------------------|
||--------------|------------|-------------------|
||--------------|------------|-------------------|
||o-------------|------------|-------------------|
||--------------|------------|-------------------|

long as i remember the rain been comin down--

G Bm(played only last verse)
|--------------|----------------------|--------------------------|
|--------------|----------------------|--------------------------|
|--------------|----------------------|--------------------------|
|--------------|----------------------|--------------------------|
|--------------|----------------------|--------------------------|
|--------------|----------------------|--------------------------|

--- clouds of mystery growin con-

 CGC
|--------------|------------|-------------------|
|--------------|------------|-------------------|
|--------------|------------|-------------------|
|--------------|------------|-------------------|
|--------------|------------|-------------------|
|--------------|------------|-------------------|

-fusion all a--round goin thru them ag -

 GCGC
|-------|---------------------|--------|--------------|
|-------|---------------------|--------|--------------|
|-------|---------------------|--------|--------------|
|-------|---------------------|--------|--------------|
|-------|---------------------|--------|--------------|
|-------|---------------------|--------|--------------|

-ges- tryin ta find tha sun- and i wond-er

 DEmG
|----------------|--------------------|--------|-----||
|----------------|--------------------|--------|----o||
|----------------|--------------------|--------|-----||
|----------------|--------------------|--------|-----||
|----------------|--------------------|--------|----o||
|----------------|--------------------|--------|-----||

still i wonder who'll stop the rain---

(break thingy)
 CGDAmCEmDGG
|------|-----|---------|------|------|-----|
|------|-----|---------|------|------|-----|
|------|-----|---------|------|------|-----|
|------|-----|---------|------|------|-----|
|------|-----|---------|------|------|-----|
|------|-----|---------|------|------|-----|


here's some fills!!!!!!!

fill: 1,
 G
e|------------------|------------------------|-------------|
B|------3-------3---|------------------------|-------------|
G|-2h4------2h4---2-|-0----------------------|-------------|
D|------------------|---------------0------0-|-------------|
A|------------------|-----------0h2----0h2---|-------------|
E|------------------|------------------------|-3-----------|


fill:2,4,5
 G
e|-------7----5----3--|
B|--------------------|
G|-4-/-7----5----4----|
D|--------------------|
A|--------------------|
E|--------------------|


fill:3 fill:6
 G
e|------------|-----------|------7---------3--|
B|------------|-----------|-------------------|
G|-0----------|-----------|--/-7-----7-\-4----|
D|---2p0------|-----------|-------------------|
A|---------2--|-----------|-------------------|
E|------------|-3---------|-------------------|


/ = legato slide, slide up the neck** (the second note is not plucked)**
\ = " ",slide back down towards the nut or headstock**
| h hammer-on**
| p pull-off**

| b bend note
| ~ vibrato
| H harmonic
| PH pinch harmonic
| x Muted string


Am C D Em G
variations - click chord images
Transpose chords:
Tuning:
Cool service:
View: Size:
A  A  A
Rating:
Layout:
  • Currently 2.4/5 Stars.
  • 1
  • 2
  • 3
  • 4
  • 5
 
Accuracy:
  • Currently 2.9/5 Stars.
  • 1
  • 2
  • 3
  • 4
  • 5
 
click stars to rate
Chordie recommends:
Learn to play guitar with video-based, online guitar lessons at JamPlay.com
Songbook:
Login to add this song to your songbook
Support the artist
Preview/buy this song
MSN Music
Why this non-profit ad?

 
login to add comments/video/corrections