Guitar Tabs, Chords and Lyrics


A Disconsolate Winter Landscape   Crematorium



              A Disconsolate Winter Landscape                
                     By: Crematorium


                                                      Lohrbas
Guitar II



                                                 
D||-----------------------|---------------------|
A||-----------------------|---------------------|
F||-----------------------|---------------------|
C||-------1----3----4--3--|-------3----4--------|
G||-----------------------|--4------------------|
C||--1--------------------|---------------------|


                                              
-----------------------|---------------------|
-----------------------|---------------------|
-----------------------|---------------------|
-------1----3----4--3--|-------3----4--------|
-----------------------|--4------------------|
--1--------------------|---------------------|


                                                          
----------------------------|----------------------------|
----------------------------|----------------------------|
----------------------------|----------------------------|
-----1---4-3-1----1---4-3-1-|-------3----4-3-1-4-3-1-4-3-|
----------------------------|--4-------------------------|
--1------------1------------|----------------------------|


                                                          
----------------------------|----------------------------||
----------------------------|----------------------------||
----------------------------|----------------------------||
-----1---4-3-1----1---4-3-1-|-------3----4-3-1-4-3-1-4-3-||
----------------------------|--4-------------------------||


Important: The song above is NOT stored on the Chordie server. The original song is hosted at www.guitaretab.com. Chordie works as a search engine and provides on-the-fly formatting. Chordie does not index songs against artists/composers will. To remove this song please click here.

This song is displayed as text-only. Transposing and tuning is only available for chordpro-songs.

Login - add to songbook

Rating click stars to rate

Layout
Accuracy

SHARE PAGE  




You need to log in to post comments