Almost Cut My Hair

David Crosby

-----------------------------------------------------


 AmGDAmG
 hold--|                         hold--------------|

 123412341234123412341234
e-5---5-8-|---------|----------|--------|-------------|----------|
B---8-----|-5-------|---5-8-10-|-13(15b)|-15b---13----|-10-8-5---|
G---------|---7-----|-5--------|----14--|-14-14-14-14-|--------7-|
D---------|-----5-7-|----------|--------|-------------|----------|
A---------|---------|----------|--------|-------------|----------|
E---------|---------|----------|--------|-------------|----------|

 1/41/4
D          *           At * the second guitar plays
1 2 3 4 1 2 3 4 this little lick:
e---------|(5)--8-5-|  e-------------|
B---------|-5-8-----|  B-------------|
G-----5-7-|---------|  G-7br-7brp5---|
D-5-7-----|---------|  D-----------7-|
A---------|---------|  A-------------|
E---------|---------|  E-------------|

* 5/4 5/4





























Am D G
variations - click chord images
Transpose chords:
Tuning:
Cool service:
View: Size:
A  A  A
Rating:
Layout:
  • Currently 2.6/5 Stars.
  • 1
  • 2
  • 3
  • 4
  • 5
 
Accuracy:
  • Currently 2.8/5 Stars.
  • 1
  • 2
  • 3
  • 4
  • 5
 
click stars to rate
Chordie recommends:
Learn how to play guitar at JamPlay.com
Songbook:
Login to add this song to your songbook
Support the artist
Preview/buy this song
MSN Music
Why this non-profit ad?

 
login to add comments/video/corrections