Just A Song Before I Go

Crosby Stills and Nash

Just a song before I go
To whom it may concern
Travelling twice the speed of sound
It's easy to get burned

When the shows were all over
We had to get back home
And when we opened up the door
I had to be alone

She helped me with my suitcase
She stands before my eyes
Driving me to the airport
And to the friendly skies

Going through security
I held her for so long
She finally looked at me in love
And she was gone

REPEAT CHORUS #1 2nd line of 2nd chorus: "A lesson to be learned"

RIFF 1 (roughly):
E -----------------------------|

B --0h1-----0-----1-----/3-----|
G ------0-----0-----0------0---|
D --0h2-----0---0-2---2-/4---4-|
A --------0--------------------|
E -----------------------------|

E ------------------------------------|

B ---1---3---5---7---8----10----12----|
G --0---0---0---0---0----0-----0------|
D -2---4---5---7---9---10----12-------|
A ------------------------------------|
E ------------------------------------|

NOTE: I'm note quite sure on the first riff, but the second riff is
pretty accurate, I think.

Corrected by Oldguit. View original
Am Bm C Em F G
variations - click chord images
Transpose chords:
Cool service:
View: Size:
A  A  A
  • Currently 2.4/5 Stars.
  • 1
  • 2
  • 3
  • 4
  • 5
  • Currently 2.5/5 Stars.
  • 1
  • 2
  • 3
  • 4
  • 5
click stars to rate
Login to add this song to your songbook
IMPORTANT: The song above is NOT stored on the Chordie server. The original song is hosted at www.guitaretab.com. Chordie works as a search engine and provides on-the-fly formating. Chordie does not index songs against artists/composers will. To remove this song please click here.

login to add comments/video/corrections