eToCache5 = ""; ?> Suite Judy Blue Eyes by Crosby Stills and Nash - guitar chords, guitar tabs and lyrics - chordie

Suite Judy Blue Eyes

Crosby Stills and Nash

 Arranged for two guitars
_____________________________________________
This song's tuning is very strange.
Guitar one's tuning is EEEEBE.Guitar two's tuning is EBGDAE.
Now,to make it easier,here is how you tune guitar one:

Start it off in standard tuning.Now,lower the pitch of the fifth string to E,
so it sounds like the 6th string.Next,raise the pitch of the 4th string to E,
and detune the third string to E so the 3rd and 4th should sound the same.
This leaves the 6th,2nd,and 1st strings as they were.

Now here are the chord shapes for guitar one:

 no5no3
E 000097  E 000054  E 000000  Asus2 055000  B(no3) 777777
B6(no3) 777797 A7sus4 000033 Esus4 000055 D6(no3) 01010000 D(no5) 000032

A/E 0000109 E7(no3) 00001210 C#m(no3) 000010 D/E 000121214 C#m(no3) 000101012
C#m(no3)2 000099 A(no3)555555 F#m(no3)141414141414 D(no3)2 101010101010
 no3
E(no3)2 121212121212  Bm 777777

___________________________________________________________________________

Guitar One:
E -7-7-7-7-7-7-7-7-7-6-5--4--0-4--0-0-0-0-0---4-0-0-0-0-0------|
B -9-9-9-9-9-9-9-9-9-8-7--5--0-5--0-2p0-2p0---5-0-2p0-2p0------|
E -0-0-0-0-0-0-0-0-0-0-0--0--0-0--0-0-0-0-0---0-0-0-0-0-0-0-0--|
E -0-0-0-0-0-0-0-0-0-0-0--0--0-0--0-0-0-0-0---0-0-0-0-0-0-0-0--|
E -------------------------------------------------------------|
E -------------------------------------------------------------|


E(no5) Asus2 E(no3) B(no3) Asus2 A7sus4
 CGDAG
It's getting to the point, where I'm no fun anymore, I am sorry

E(no3) Asus2 E(no3) B(no3) Asus2 A7sus4
 DCGDAG
 Sometimes it hurts so badly I must cry out loud, I am lonely

E(no3) B(no3) Asus2 A7sus4 E(no3)Asus2
 DAGG7D
I am yours, you are mine, you are what you are, you make it hard

E(no5) Asus2 E(no3) B(no3)
 DCGDA
Remember what we've said, and done, and felt about each other,
 GAsus2A7sus4
Oh babe, have mercy  

E(no3) Asus2 E(no3) B(no3)
 DCGDA
 Don't let the past remind us of what we are not now,
 GAsus2A7sus4
I am not dreaming

E(no3) B(no3) Asus2 A7sus4
 DAGG7D
I am yours, you are mine, you are what you are, you make it hard

Guitar One:
E -7-7-7-7-7-7-7-7-7-6-5--4--0-4--0-0-0-0-0---4-0-0-0-0-0------|
B -9-9-9-9-9-9-9-9-9-8-7--5--0-5--0-2p0-2p0---5-0-2p0-2p0------|
E -0-0-0-0-0-0-0-0-0-0-0--0--0-0--0-0-0-0-0---0-0-0-0-0-0-0-0--|
E -0-0-0-0-0-0-0-0-0-0-0--0--0-0--0-0-0-0-0---0-0-0-0-0-0-0-0--|
E -------------------------------------------------------------|
E -------------------------------------------------------------|


E(no5) Asus2 E(no3) B(no3) Asus2
 CGDAG
Tearing yourself away from me now, you are free and I am crying

E(no3) Asus2 E(no3) B(no3)
 CGDA
This does not mean I don't love you, I do, that's forever,
 GAsus2A7sus4
Yes and for always 

E(no3) B(no3) Asus2 A7sus4 E(no3) Asus2
 DAGG7D
I am yours, you are mine, you are what you are, you make it hard

E(no5) Asus2 E(no3) B(no3)*
 CGDA
Something inside is telling me that I've got your secret,
 GAsus2A7sus4
Are you still listening?

E(no3) Asus2 E(no3) B(no3)* Asus2 A7sus4
 CGDAG
Fear is the lock and laughter the key to your heart, and I love you

E(no3) B(no3) Asus2 A7sus4 E(no3) Asus2
 DAGG7D
I am yours, you are mine, you are what you are, you make it hard

E(no3)Asus2 E(no3)Asus2 E(no3)
 DDD
And you make it hard,   and you make it hard,    and you make it hard

<12>-12th fret harmonic

Here's the main riff throughout the second part:
E -----<12>---5-5--4-5------|
B -----<12>---5-5--5-5------|
E -----<12>---0-0--0-0------|
E --------------------------|
E --------------------------|
E -0-0------0---------------|


 Asus2A7sus4
Friday evening, Sunday in the afternoon,        what have you got to lose?

 Asus2A7sus4
Tuesday morning please, be gone, I'm tired of you,      what have you got to lose?

D6(no3) Asus2
Can I tell it like it is? Listen to me baby

 Asus2
It's my heart that's a-sufferin', it's a dyin' and that's what I have to lose

 Asus2A7sus4
I've got an answer, I'm going to fly away,       what have I got to lose?

 Asus2A7sus4
Will you come see me, Thursdays and Saturdays,    what have you got to lose?

__________________________________________________________________

 play tbis and loosely improvise because its not 100%
Solo played by guitar one:
-[7]h9-7---[7]h9-7---[7]h9-7---------|-[7]h9-7--[7]h9-7-------------------------------|
-----------------------------9--7--5-|------------------10-10-7--9-6--6-8-6-4--4--6-3-|
-------------------------------------|------------------------------------------------|
-------------------------------------|------------------------------------------------|
-------------------------------------|------------------------------------------------|
-------------------------------------|------------------------------------------------|


4:51
------------5-7---7-7--------------------|--------------------|
-2--0~--5-7-----------------3~--3-[0]-5b-|-7--9--10-9--7--5---|
-----------------------[5]~--------------|--------------------|
-----------------------------------------|--------------------|
-----------------------------------------|--------------------|
-----------------------------------------|--------------------|

___________________________________________________________________

D(no5) E(no5) D(no5) E(no5)
 CDCD
 Chestnut brown canary, ruby throated sparrow
Esus2 A/E E7(no3) D(no5) C#m(no5]
 CAmCAmCD
 Sing a song, don't be long, thrill me to the marrow

____________________________________________________________________
2nd Solo:
-------------10/12-12-------10/12-|----------------------4/5-5-----------|
-7--9--10-12----------9--7~-------|-9-7-6-4-2--1~--5/7-7--------9--7--5--|
----------------------------------|--------------------------------------|
----------------------------------|--------------------------------------|
----------------------------------|--------------------------------------|
----------------------------------|--------------------------------------|

____________________________________________________________________

 no5no5no5no5
   D           E     D             E 
 CDCD
 Voices of the angels, ring around the moonlight
 no3no5no5
  Esus2                  A/E                 E7       D        C#m 
 CAmCAmCD
 Asking me, said she's so free, how can you catch the sparrow?

____________________________________________________________________
3rd Solo:
-----------------------|-----10--10-9-9----------------|
-7/9-9--10--9-9--10-12-|-7-9-----7--7-7--[7]-9--10-10--|
-----------------------|------------------------9--9---|
-----------------------|-------------------------------|
-----------------------|-------------------------------|
-----------------------|-------------------------------|
---------------------------|
--3--2--0------------------|
----------4--4-2--0--0-----|
---------------------------|
---------------------------|
---------------------------|

______________________________________________________________________
 no5no5no5no5
  D           E   D          E 
 CDCD
 Lacy lilting lady, losing love lamenting
 no3no5no5
   Asus2                 A/E                E7  D C#m 
 CAmCAmCD
 Change my life, make it right, be my lady

 D/EC#m/ED/EC#m/ED/EC#m/ED/EC#m/ED/EC#m/EC#m/E2Bm/E
A(no3) Bm(no3) F#m(no3) D(no3)2 E(no3)2
 GAmEmCD
 Du du du du du,     du      du    du du du du

A(no3) Bm(no3) F#m(no3) D(no3)2 E(no3)2
 GAmEmC
 Du du du du du,  du      du     du du

 Repeat 7 times

At the end of the Suite:Judy Blue Eyes Stephen Stills sings these Spanish lines:

Que linda me la traiga Cuba,
la reina de la Mar Caribe.
Cielo sol no tiene sangreahi,
y que triste que no puedo vaya,
Oh va, oh va, va.

Translated:
How happy it makes me to think of Cuba,
the smiles of the Caribbean Sea,
Sunny sky has no blood, and how sad that
I'm not able to go
Oh go, oh go go


A A7sus4 Am Asus2 Bm/E C C#m/E D D/E Em G G7
variations - click chord images
Transpose chords:
Tuning:
Cool service:
View: Size:
A  A  A
Rating:
Layout:
  • Currently 3.3/5 Stars.
  • 1
  • 2
  • 3
  • 4
  • 5
 
Accuracy:
  • Currently 2.7/5 Stars.
  • 1
  • 2
  • 3
  • 4
  • 5
 
click stars to rate
Chordie recommends:
Check out JamPlay.com for online video guitar lessons
Songbook:
Login to add this song to your songbook
Support the artist
Preview/buy this song
MSN Music
Why this non-profit ad?

 
login to add comments/video/corrections