"yes"; ?> insertsongandartist - guitar chords, guitar tabs and lyrics - chordie

A Change

Sheryl Crow





 E7B5Asus4
 eadgbe         eadgbe        eadgbe
|o----o|	|x---xx|	|xo---o|

|-11---| |-1----| |--12--|
|----2-| |------| |----4-|
|---3--| |--34--| |------|
|------| |------| |------|
|------| |------| |------|

Wherever is says E7 then B5 that just means the main riff

Main Riff capo 1st fret

 E7B5
                                                                                      
E|---------------------------|-----------------------------|

B|--3----3-------3----3------|--3--------------------------|
G|--4----4---2---4----4---2--|--4---2-------------------2--|
D|--2----2-------2----2------|--2--------4------4---4------|
A|--2------------------------|-----------2------2---2------|
E|--0------------------------|-----------------------------|

Verse 1
 C6Am7Dm7G9
 Life used  to be a gay  thing 
 CAm7Dm7G7
 filled with  happiness, night and day  thing
 CAmG6
It was  something to  have and to hold
 D7Dm7G7+
 But it  seems that your love grew cold

 CAmD7Dm7G7
 I never knew that our romance had ended,
 CAmD7
 Until you poisoned my food
 CEbdim
And I thought it was a lark
 Dm7Bm7E7
When you kicked me in the park 
 Am7D7Dm7G7
  But now I think it was rude. 

 CAmD7Dm7G7
 I never knew that you and I were finished
 CAmD7
 Until that bottle hit my head
 CEbdim
Though I tried to be aloof
 Dm7Bm7E7
when you pushed me off the roof, 
 Am7}I feel our D7G7C
 romance is dead

 Gm7C9Gm7Cm7
It wouldn't have been so bad if you'd told me 
 C7Fmaj7Gm7Fmaj7F6
 That someone had taken my place 
 Am7D7Am7scold me Dm7
But no, you didn't even 
 D7Dm7C#dimDm7G7
 You just tried to disfigure my face 

 CAmknow bow tbis D7Dm7G7
 You'l never heart of mine is breaking
 CAmD7
 It looks so hopeless but then;
 CEbdim
Life used to be so  placid
 Dm7Bm7E7
won't you please put down the acid? 
 Am7D7G7sweetbeartsG9C
And say that we're  again
 A7 augD7CDm7C6
   {G7]