Guitar Tabs, Chords and Lyrics


Failure To Delay Gratification   Crowbar



Band:	CROWBAR
Album:	Sonic Excess in its Purest Form
Song:	Failure to Delay Gratifacation

Transcribed by:	general maxx
Tuning:	2.5 steps down

Keys:
 /or\ - slide
   p  - pull off
  ___ - palm mute


|---------------------------|
|---------------------------|
|---------------------------|
|-/10-9-9-9-9-8-8-8-5-5-5-5-|
|-/-8-9-9-9-9-8-8-8-5-5-5-5-|
|-/-8-7-7-7-7-6-6-6-3-3-3-3-| 8x

|-------------------|
|-------------------|
|-------------------|
|---------------8\7-|
|-4--2----------6\5-|
|-2--0--0-2p0-2-6\5-| 4x

|---------------------------|
|---------------------------|
|---------------------------|
|-/10-9-9-9-9-8-8-8-5-5-5-5-|
|-/-8-9-9-9-9-8-8-8-5-5-5-5-|
|-/-8-7-7-7-7-6-6-6-3-3-3-3-| 4x

|-------------------|
|-------------------|
|-------------------|
|---------------8\7-|
|-4--2----------6\5-|
|-2--0--0-2p0-2-6\5-| 4x

|--------------------------|
|--------------------------|
|--------------------------|
|-5--8--2--5--9--8---------|
|-5--6--2--3--9--8---------|
|-3--6--0--3--7--6--2-1-2~-| 4x

|----------------------------|
|----------------------------|
|----------------------------|
|---------9--8---8-----------|
|-3-2-3-2-9--8---6--2-3-2-3--|
|-1-0-1-0-7--6---6--0-1-0-1--| 8x
  _______

|-------------------|
|-------------------|
|-------------------|
|---------------8\7-|
|-4--2----------6\5-|
|-2--0--0-2p0-2-6\5-| 8x

|---------------------------------------|
|---------------------------------------|
|---------------------------------------|
|-------------------4--3----------------|
|-------------------4--3----------------|
|-0-0-0-0... 32x----2--1----------------|
  _______

|---------------------------------|
|---------------------------------|
|---------------------------------|
|-/10-9--9--9--9--9-8-8-8-5-5-5-5-|
|-/-8-9--9--9--9--9-8-8-8-5-5-5-5-|
|-/-8-7--7--7--7--7-6-6-6-3-3-3-3-| 4x

|--------------------------------|
|--------------------------------|
|--------------------------------|
|-/9-8--8--8--8--8-7-7-7-4-4-4-4-|
|-/7-8--8--8--8--8-7-7-7-4-4-4-4-|
|-/7-6--6--6--6--6-5-5-5-2-2-2-2-| 3x

|------------------------------------|
|------------------------------------|
|------------------------------------|
|-/9-8--8--8--8--8-7-7-7-4--4--4--3--|
|-/7-8--8--8--8--8-7-7-7-4--4--4--3--|
|-/7-6--6--6--6--6-5-5-5-2--2--2--1--|



Important: The song above is NOT stored on the Chordie server. The original song is hosted at www.guitaretab.com. Chordie works as a search engine and provides on-the-fly formatting. Chordie does not index songs against artists'/composers' will. To remove this song please click here.

This song is displayed as text-only. Transposing and tuning is only available for chordpro-songs.

Login - add to songbook

Rating click stars to rate

Layout
Accuracy

SHARE PAGE  




You need to log in to post comments