Chordie logo

Pineapple Head     Crowded House


|-5---3-2-----|-3-----------|-1-----------|-0h1p0---------|
|-------------|-------------|-------------|-------3---1---|
|-------------|-------------|-------------|---------------|
|-------------|-------------|-------------|---------------|
|-------------|-------------|-------------|---------------|
|-------------|-------------|-------------|---------------|





bridge motif:


  d             g             d             d


                                                                


|-5---3-2-----|-3-----------|-2-----------|-2p0-----0-----|
|-------------|-------------|-------------|-----3---------|
|-------------|-------------|-------------|---------------|
|-------------|-------------|-------------|---------------|
|-------------|-------------|-------------|---------------|
|-------------|-------------|-------------|---------------|



Important: The song above is NOT stored on the Chordie server. The original song is hosted at www.guitaretab.com. Chordie works as a search engine and provides on-the-fly formatting. Chordie does not index songs against artists/composers will. To remove this song please click here.

This song is displayed as text-only. Transposing and tuning is only available for chordpro-songs.

Rating click stars to rate

Layout
Accuracy

SHARE PAGE  

You need to log in to post comments

cglover (report)

Note: Capo 3rd Fret