Weather With You

Crowded House

----------------------------------------------------------------------------

---------------------------------------------------------------------------
e|--3/5-5555----3/5-5555---7-8-7-5-3-2-3-2-0-------------------------------|
B|-------------------------------------------2-----------------------------|
G|-------------------------------------------------------------------------|
D|-------------------------------------------------------------------------|
A|-------------------------------------------------------------------------|
E|-------------------------------------------------------------------------|

 EMA
e|-------------------------------------------------------------------------|
B|------------------------------3-2-0-2------------------------------------|
G|--------------------------2-2-2-2-2-2------------------------------------|
D|--2-2-2-2-----------------2-2-2-2-2-2------------------------------------|
A|--2-2-2-2----------------------------------------------------------------|
E|-------------------------------------------------------------------------|


Walking 'round the room singing Stormy Weather
 EMA
At 57 Mount Pleasant Street
 EMA
Now it's the same room but everything's different
 EMA
You can fight the sleep but not the dream

 DmC
   Things ain't cookin'
 DmC
   in my kitchen
 DmCF
   Strange affliction wash over me
 DmC
   Julius Caesar
 DmC
   and the Roman Empire
 DmCFG
   Couldn't conquer the blue sky

 EMAEMA
 EMA
There's a small boat made of china
 EMA
Going nowhere on the mantlepiece
 EMA
Do I lie like a loungeroom lizard
 EAA7sus4
Or do I sing like a bird released?  

 A7sus4D
Everywhere you go, you always take the weather with you
 A7sus4D
Everywhere you go, you always take the weather
 A7sus4G
Everywhere you go, you always take the weather with you
 F#mEM
Everywhere you go, you always take the weather
 AEm7
The weather with you

 AEMAA7sus4

 A7sus4D
Everywhere you go, you always take the weather with you
 A7sus4D
Everywhere you go, you always take the weather
 A7sus4G
Everywhere you go, you always take the weather with you
 F#mEM
Everywhere you go, you always take the weather
 AD
Take the weather with you

Those chords in full:
 EADGBE
Dm     xx0231
C x32010
A7sus4 x02030
 F#m244222
 EM     022000
A x02220
D xx0232

| / slide up
| \ slide down
| h hammer-on
| p pull-off
| ~ vibrato
| + harmonic
| x Mute note

A A7sus4 C D Dm E Em Em7 F F#m G
variations - click chord images
Transpose chords:
Tuning:
Cool service:
View: Size:
A  A  A
Rating:
Layout:
  • Currently 2.8/5 Stars.
  • 1
  • 2
  • 3
  • 4
  • 5
 
Accuracy:
  • Currently 2.9/5 Stars.
  • 1
  • 2
  • 3
  • 4
  • 5
 
click stars to rate
Chordie recommends:
Learn to play guitar with video-based, online guitar lessons at JamPlay.com
Songbook:
Login to add this song to your songbook
Support the artist
Preview/buy this song
MSN Music
Why this non-profit ad?

 
login to add comments/video/corrections