Guitar Tabs, Chords and Lyrics


Asian Treasure   Cueshe



Asian Treasure
by Cueshe

Standard Tuning lng poh...

Intro:
e||-------------------|------------------------------|
B||-------------------|------------------------------|
G||----------------6b-|------------------------------|
D||------9---7--------|------9---7----6--------------|    2x
A||--7-7----7---7-----|--7-7----7---7----------------|
E||-------------------|------------------------------|

e||-------------------|
B||-------------------|
G||----------------6b-|
D||------9---7--------|ulit-ulitin lng toh kasabay ng sa taas guitar 2 toh
A||--7-7----7---7-----|bali kasabay nung sa taas after 2x n mgwa
E||-------------------|

Verse: E-A


e||-------------------|-------------------|-------------------|
B||-------------------|-------------------|-------------------|
G||----------------6b-|----------------6b-|----------------6b-|
D||------9---7--------|------9---7--------|------9---7--------|
A||--7-7----7---7-----|--7-7----7---7-----|--7-7----7---7-----|
E||-------------------|-------------------|-------------------|


e||------------------------------|
B||------------------------------|
G||------------------------------|
D||------9---7----6--------------|
A||--7-7----7---7----------------|
E||------------------------------|

Refrain: F#m-A-F#m-A-F#m-A-B

Chorus:  E-F#m-A-B

yan lng then ito lyrics

Asian Treasure

Ano ba ang hanap mo
Pwede bang katulad ko
Ang ibigin mo ooh

Di mo na kailangan pang
Pumunta sa dulo ng walang hanggan
Para sumaya

[refrain]
Ipikit mo lang ang iyong mata
Ang pusong mo makakita
Ng yamang di inaasahan

[chorus]
Ika’y ginto sa puso ko
Sana ito’y malaman mo
Wala nang yaman sa mundo
Ang mas hihigit sa yo
Wala nang hahanapin pa
Sa yo ako’y kumpleto na
Walang yamang mas hihigit sa yo

Iwan mo na ang nagdaan
Matutong wag muling masaktan ang damdamin
Ako’y iyong pansinin

Di man ako tulad nila
Walang porma, walang pera
Pero mahal kita, ika’y mahalaga
At iingatan pa

[repeat refrain and chorus]

Walang yamang mas hihigit sa yo

*yan po ang aking version sana po magustuhan niyo...
mabuhay ang OPM "tangkilikin ang sariling atin"
kung may question kau just email me at akumachi_06@yahoo.com or add me also on 


Important: The song above is NOT stored on the Chordie server. The original song is hosted at www.guitaretab.com. Chordie works as a search engine and provides on-the-fly formatting. Chordie does not index songs against artists'/composers' will. To remove this song please click here.

This song is displayed as text-only. Transposing and tuning is only available for chordpro-songs.

Login - add to songbook

Rating click stars to rate

Layout
Accuracy

SHARE PAGE  




You need to log in to post comments