Guitar Tabs, Chords and Lyrics


War   Cult







Song: War
Artist: The Cult
Album: Beyond Good and Evil

Tabbed by Robert Pessagno

Drop D Tuning

Riff A:
|-------------------------|--------------------------|
|-------------------------|--------------------------|
|-------0-----0-----0-----|-------0------------0-----|
|-----3---3-----3-----3---|-----0---0--------0---0---|
|---5-------5-----5-----5-|---3-------3----5-------5-|
|-0-----------------------|-3------------5-----------|

Riff B:
|------------------------|---------------------|
|------------------------|---------------------|
|------------------------|---------------------|
|-------3--------------3-|-------3-------5b5-3-|
|-3-5-0---3-5-5--3-5-3---|-3-5-0---3-5-5-------|
|-3-5-0-------0--3-5-----|-3-5-0-------0-------|

Riff C:
|--------------|
|--------------|
|--------------|
|--------------|
|-10-12-10-12/-| 

Important: The song above is NOT stored on the Chordie server. The original song is hosted at www.guitaretab.com. Chordie works as a search engine and provides on-the-fly formatting. Chordie does not index songs against artists'/composers' will. To remove this song please click here.

This song is displayed as text-only. Transposing and tuning is only available for chordpro-songs.

Login - add to songbook

Rating click stars to rate

Layout
Accuracy

Jango Player

SHARE PAGE  




You need to log in to post comments