Guitar Tabs, Chords and Lyrics


Hollow Man  Cult

   E-------------------------------------------------|


   B-------------------------------------------------|


   G-------------------------------------------------|4X

D---7-5--7-5--5-7---7-5---------------------------|
A-0---------------3---------------0---------------|
E-----------------------3--3--3-5-----------------|
E------------------------------------------------------------------|
B------------------------------------------------------------------|
G--------------------------7-7-5-5---------------------------------|6X
D-7-7-7-5-5-5-—7-7-7-5-5-5---------7-7-7-5-5-5--7-7-7--------------|
A------------------------------------------------------5-5-5-7-7-5-|
E------------------------------------------------------------------|
[A]It's so nice to get
[C]Get away[G] for a [A]da[C]y [G]
I see [A]a hollow man gun in hand
[C]Gun in h[G]ands it[A] p[C]oi[G]nts my way
[A]He follows me everywhere[C] and everyday
[G]I got t[A]o [C]ge[G]t away
[A]I won't miss him if[C] he goes[G] away a[A]nd[C] s[G]tays away
G Riff A Riff
Just a hunter, for the devil
A Riff A
Hollow man, hollow man hollow man

Riff:
   E------------------------------|
   B------------------------------|
   G------------------------------|
   D------------------------------|
   A----5-5-5-3-3-3-2-2-0---------|
   E--3---------------------------|


Important: The song above is NOT stored on the Chordie server. The original song is hosted at www.guitaretab.com. Chordie works as a search engine and provides on-the-fly formatting. Chordie does not index songs against artists'/composers' will. To remove this song please click here.

Text color:
Chord color:
Chord grids: 
Font size:    
Page size: 

A C G
variations - click chord images

Login - add to songbook

Transpose chords

Tuning

Rating click stars to rate

Layout
Accuracy

SHARE PAGE  




You need to log in to post comments