eToCache5 = ""; ?> Firewoman by Cult - guitar chords, guitar tabs and lyrics - chordie

Firewoman

Cult

|--------------|-------------|------------|-3-|-----|---3--------|

|-----------3--|---3---3--3--|----------3-|-3-|-----|---3--------|
|---0----0—-2--|--0---0---2--|---0---0--2-|-0-|-rpt-|---0—--P.S--|
|--0----0---0--|-3---2----0--|--0---0---0-|-0-|-----|---0--------|
|-----3--------|-------------|-----3------|-2-|-----|---2--------|
|-3------------|-------------|-3----------|-3-|-----|---3--------|
|---------|---------|---------|------------|----------------------|
|---------|---------|---------|------------|----------------/1312-|
|-7-7-7-7-|-5-5-5-5-|-5-5-5-5-|5-5-5-7-7---|--------------10------|
|-7-7-7-7-|-5-5-5-5-|-5-5-5-5-|5-5-5-7-7---|-----------/12--------|
|-5-5-5-5-|-3-3-3-3-|-2-2-2-2-|3-3-3-5-5---|----------------------|
|---------|---------|---------|------------|----------------------|
|----------------------|-----------------------|-----|-------|
|------6----------6----|------6-----/8-6-5-----|-----|-------|
|-/5-7----7---/5-7---7-|-/5-7---7----------5-5-|-rpt-|--5/7--|
|----------------------|-----------------------|-----|-------|
|----------------------|-----------------------|-----|-------|
|----------------------|-----------------------|-----|-------|

 DF
 Twistin' like a flame in a slow dance, baby,
 GF
 You're driving me crazy.
Come on, little honey, come on now! (power chords - GG GGF)

(Rhy 2)
Twisting . .
 DFGFGGGGF
|------------|-------------|-------------|-------------|-----|------
|------6-5---|-----6-565-3-|-----8-6-5---|-----6-565-3-|-----|------
|----------7-|---5---------|---7-------7-|---5---------|-rpt-|------
|----7-------|-3-----------|-5-----------|-3-----------|-----|------
|-5----------|-------------|-------------|-------------|-----|------
|------------|-------------|-------------|-------------|-----|------


Chorus
(Rhy 2)
 DCGC
 Fire!   Smoke, she is a rising!          
 DFGC
 Fire!   Smoke on the horizon!            

(w/Fill 2)
Fire! Smoke, she is a rising!
Fire! Smoke stack lightning!

Fill 2
|------------------------|----------------------------|-----|-------|
|------65----------65----|------65---------65-5-6-8---|-----|-------|
|-/5-7----77---/5-7---77-|-/5-7---77---/5-7--7--------|-Rpt-|--5/7--|
|------------------------|----------------------------|-x 1-|-------|
|------------------------|----------------------------|-----|-------|
|------------------------|----------------------------|-----|-------|


Solo
|------------|------------------------------------------|
|------------|------------------------------------------|
|--------10--|-12--10------10---1210---------10---------|
|-/12--------|-------12-12----12-----1212--12--12-10/12-|
|------------|------------------------------------------|
|------------|------------------------------------------|
|---------------|-----------------1012-----------|
|---------------|-13-12-10--101213------13-13/15-|
|-----10----10--|---------12---------------------|
|-1012--1210—12-|--------------------------------|
|---------------|--------------------------------|
|---------------|--------------------------------|


V2
You shake it up, you're to blame, got me swayin' little honey.
My heart's a ball of burnin' flame.
Oh, yes it is.
Trancing like a cat on a hot tin shack,
Lord, have mercy! Come on little sister, come on and shake it!

Cho
Fire! Smoke, she is a rising!
Fire! Smoke on the horizon!
Fire! Smoke, she is a rising!
Fire! Smoke stack lightning!

Bridge
I was thinking what I've been missing.
I'll tell you truthfully, well.
She's coming close now.
I can feel her.
She's getting close to me.

Cho
Fire! Smoke, she is a rising!
Fire! Smoke on the horizon!
Fire! Smoke, she is a rising!
Fire! Smoke stack lightning

C D F G
variations - click chord images
Transpose chords:
Tuning:
Cool service:
View: Size:
A  A  A
Rating:
Layout:
  • Currently 2.8/5 Stars.
  • 1
  • 2
  • 3
  • 4
  • 5
 
Accuracy:
  • Currently 1.7/5 Stars.
  • 1
  • 2
  • 3
  • 4
  • 5
 
click stars to rate
Chordie recommends:
Learn to play songs at Jamplay.com with video guitar lessons
Songbook:
Login to add this song to your songbook
Support the artist
Preview/buy this song
MSN Music
Why this non-profit ad?

 
login to add comments/video/corrections