Guitar Tabs, Chords and Lyrics


Sanctuary 2  Cult

e-----12-----------------------------------------------------------------------


B-(15)---15-14--15-14--14>12-------(12)---------------------------------------


G----------------------------14-14-(14)--14>12--12>14--14>12--(9)--------------


D-------------------------------------------------------------(14)-------------

[A]  [E]                                                                                        
e-----------------------------------------------------(12)---------------------
B--12-14--14-12--15-12--12-12h14p12--12>14--14>15--15>(17)---------------------

[G]  [D]  [A]  [E]  RIFF A  played twice
======
e-12---------------------------------------------------------------------------
B----15-14--15-14--14>12-(8--8)--(12)-------------------(12)------*--*---------
G------------------------(14-14)-(16)-12--12>14--14>12--(16)--14>12-12--(12>14)

[D]  [A]  [E]                         other ending>     e
                                         B-------12-12-----14--15---
                                         G-------------14--14------

On the beats marked with an asterisk someone strums an F chord on an accoustic
with lovely new strings!
Towards the end of the song the riff is played again with the alternative
ending.
Verse 1 (touch the sun etc)
Sounds like someone's playing a palm-muted F power chord in the verses and
strumming different strings, kind of like
e 6 6
[B]                      [6]   [6]  [G]     [5]    [5]  [5]     [5]      [5]   [5]  [D]   [3]    [3]       [3]      [3]  [A]  [E]  RIFF B played twice
======
e-(10>)-12x7-14-12----12-----------------------------------------------------
B------------------15----15-14--12x4--15-14-12>10--10>12--14-15--------------

[G]  [D]  [A]  [E]  verse 2 (the succour in your eyes keeps me alive)
The world drags me down
Riff A played twice
verse 3 (touch the sun...)
Riff B x 2
The fire in your eyes keepsme alive
And somehow(Where?) you'll find Sanctuary...
And the world drags me down
Intro played again!
'Sanctuary' sung, another riff played in background
e--12-----------three times, then--12--------------------------------------
B-----15-14-12-----------------------15-14-(last note held a bit)----------

and the world....
1st half of intro played
Riff A with the alternative ending
1st half of intro played again at very end!
James
There's a man playing a violin, and the strings are the nerves in his own arm.
- J O'Barr

Important: The song above is NOT stored on the Chordie server. The original song is hosted at www.guitaretab.com. Chordie works as a search engine and provides on-the-fly formatting. Chordie does not index songs against artists'/composers' will. To remove this song please click here.

Text color:
Chord color:
Chord grids: 
Font size:    
Page size: 

A B D E G
variations - click chord images

Login - add to songbook

Transpose chords

Tuning

Rating click stars to rate

Layout
Accuracy

SHARE PAGE  




You need to log in to post comments