Guitar Tabs, Chords and Lyrics


She Sells Sanctuary 3   Cult












NNTP-Posting-Host: science.di.fc.ul.pt

She Sells Sanctuary  -  The Cult  from the "Pure Cult" album
                        Transcription by Luis Ferreira
 
#cutline#

        D
Oh the heads that turn
 Cadd9             G
Make my back burn
           D
And those heads that turn
 Cadd9                  G
Make my back - make my back burn

#cutline#

The sparkle in your eyes
Keeps me alive
And the sparkle in your eyes
Keeps me alive - keeps me alive

And the world
And the world turns around
The world and the world yeah yeah
The world drags me down

#cutline#

Oh the heads that turn
Make my back burn
And those heads that turn
Make my back - make my back burn yeah yeah

#cutline#  Yeah yeah he-hey  Yeah yeah he-hey

The fire in your eyes
Keeps me alive
And the fire in your eyes
Keeps me alive

I'm sure in her you'll find
The sanctuary
I'm sure in her you'll find
The sanctuary

And the world
And the world and the world

#cutline#

And the world and the world and the world
And the world and the world and the world and the world

#cutline#  Ah ah
#cutline#

#cutline#

( Yeah yeah he-hey )  And the world
( Yeah yeah he-hey )  And the world and the world

( Yeah yeah he-hey )  And the world
( Yeah yeah he-hey )  And the world and the world

#cutline#
#cutline#

-----------------------------------------------------------------------------

Chords used:  D: x00232      Cadd9: 032030      G: 320033

- Riff 1 - ( Lots of echo and vibrato )

e----5--5-3--3-2--2---------------------------|--
B--3----------------3--3-1--1h3-1h3-1h3--3----|--
G------------------------------------------2--|--
D---------------------------------------------|--
A---------------------------------------------|--
E---------------------------------------------|--

e----5--5-3--3-7--7-5--5-----------------------10--|--
B--3---------------------8--8h10-8h10-8h10--10-----|--
G--------------------------------------------------|--
D--------------------------------------------------|--
A--------------------------------------------------|--
E--------------------------------------------------|--
- Riff 2 -

e--5--5-3--3-2-2-3-2------|------------------3-2------|--
B--------------------3-3--|-3-3-1--1-3--3--------3-3--|--
G-------------------------|---------------2-----------|--
D-------------------------|---------------------------|--
A-------------------------|---------------------------|--
E-------------------------|---------------------------|--
- Riff 3 -

e--5-5-5-5-5-5-5-5-5-5-7-5--|-5-5-5\3--3-3--3-3-3-3-2-2-2-2-3-3--|--
B---------------------------|------------------------------------|--
G---------------------------|------------------------------------|--
D---------------------------|------------------------------------|--
A---------------------------|------------------------------------|--
E---------------------------|------------------------------------|--

e--3/5-5-5-5-5-5-5-5-7-5--|-5-5-5\3--3-3--2-2-2-2------------|--
B-------------------------|-----------------------5-5-5-5\3--|--
G-------------------------|----------------------------------|--
D-------------------------|----------------------------------|--
A-------------------------|----------------------------------|--
E-------------------------|----------------------------------|--
- Riff 4 -

e--------------------------------------|------------------------------------|-
B--10-8-7-10-8-7-10-8-7-10-8-7-10-8-7--|-10-8-7-10-8-7-10-8-7-10-8-7-10-8-7-|-
G--------------------------------------|------------------------------------|-
D--------------------------------------|------------------------------------|-
A--------------------------------------|------------------------------------|-
E--------------------------------------|------------------------------------|-

-----------------------------------------------------------------------------
|       Luis Ferreira        |  You see a city in the desert lies           |
|                            |  The vanity of an ancient king               |
| csrc08@science.di.fc.ul.pt |  The city lies in broken pieces              |
|                            |  Where the wind howls and the vultures sing  |
|         Portugal           |      Sting  -  Mad About You  (Soul Cages)   |


Important: The song above is NOT stored on the Chordie server. The original song is hosted at www.guitaretab.com. Chordie works as a search engine and provides on-the-fly formatting. Chordie does not index songs against artists'/composers' will. To remove this song please click here.

This song is displayed as text-only. Transposing and tuning is only available for chordpro-songs.

Login - add to songbook

Rating click stars to rate

Layout
Accuracy

SHARE PAGE  




You need to log in to post comments