Guitar Tabs, Chords and Lyrics


Spiritwalker   Cult



SPIRITWALKER
The Cult

Taken from the Beggars Banquet album Dreamtime (1984)

Transcribed by: Damian Pamminger (TwitcheD_85@hotmail.com)

Standard tuning: E A D G B E

Rhy. Fig. 1
|--------3---------3----------|
|---3---------3---------3-----|
|-0----0----0----0---0--------|
| ----------------------------|
| ----------------------------|
| ----------------------------|

Fill
|--------3-----3-----|
|---3----------3-----|
|-0----0----0--0---- |
|--------------------|
|--------------------|
|--------------------|

Rhy. Fig. 2
| ---------------------------------------------------------|
| ---------------------------------------------------------|
|--------0----------0-----0----------0-------------0-------|
|---0----------0-------0-------0--------------0------------|
|----------------------------------------------------------|
|-3----3----3-----3----------0----0-----0--1----1----1-----|

Lead
| ----------------------------------------------------------------------------|
|-15~~------\-11~~---------/-15~~-----\-3~~-------/-15~~-------\-11~~---------|
| ----------------------------------------------------------------------------|
| ----------------------------------------------------------------------------|
| ----------------------------------------------------------------------------|
| ----------------------------------------------------------------------------|

| ----------------------------|
|-/-15~~----15b^-r-(15)~~-----|
| ----------------------------|
| ----------------------------|
| ----------------------------|
| ----------------------------|

Rhy. Fig. 3
|--------------------------------------------------------|----------|
|---3----1----3----1---1--3----3----1----3----1--1-0----|-----------|
|-0----0----0----0---0-------0----0----0----0--------0--|-REPEAT----|
|--------------------------------------------------------|----------|
|--------------------------------------------------------|----------|
|--------------------------------------------------------|----------|

|---10----8----10----8---8--10----10----8----10----8--8-7----|----------------|
|-8-----8----8-----8---8--------8-----8----8-----8---------8--|---------------|
|--------------------------------------------------------------|--REPEAT------|
|--------------------------------------------------------------|-three-more---|
|--------------------------------------------------------------|---times------|
|--------------------------------------------------------------|--------------|

|-----------15-------------15-----------|--------------|
|----15-------------15--------------15--|--------------|
|-12-----12-----12-----12------12------ |--REPEAT------|
|--------------------------------------- |-nine-more---|
|--------------------------------------- |---times-----|
|--------------------------------------- |-------------|

End
|-----------15-----|
|----15------------|
|-12-----12------- |
|------------------|
|------------------|


Important: The song above is NOT stored on the Chordie server. The original song is hosted at www.guitaretab.com. Chordie works as a search engine and provides on-the-fly formatting. Chordie does not index songs against artists'/composers' will. To remove this song please click here.

This song is displayed as text-only. Transposing and tuning is only available for chordpro-songs.

Login - add to songbook

Rating click stars to rate

Layout
Accuracy

SHARE PAGE  




You need to log in to post comments