Guitar Tabs, Chords and Lyrics


Sweet Soul Sister   Cult



Sweet Soul Sister- The Cult intro


I know I have the first parts right but the last part I’m not so sure about

E-----------------------------------------------------------------------|
B-----------------------------------------------------------------------|
G---------------------------------7---8---7---5---7---5-----------------|
D--------------5—h7-------------------------------------7---5-----------|
A-------------------------0-0-0-----------------------------------------|
E-----------------------------------------------------------------------|

E-----------------------------------------------------------------------|
B-----------------------------------------------------------------------|
G---------------------------------7---8---7---5---7~--------------------|
D--------------5—h7-----------------------------------------------------|
A-------------------------0-0-0-----------------------------------------|
E-----------------------------------------------------------------------|


E-----------------------------------------------------------------------|
B-----------------------------------------------------------------------|
G---------------------------------7---8---7---5---7---5-----------------|
D--------------5—h7-------------------------------------7---------------|
A-------------------------0-0-0-----------------------------------------|
E-----------------------------------------------------------------------|

E---------------------------------------------|
B---------------------------------------------|
G---------------------------------------------|
D---------5--7------5-------------------------|
A-----------------7-----7--5------------------|
E--------------------------------5------------|

If you know the last part to this please tell me so I can post it back up



Important: The song above is NOT stored on the Chordie server. The original song is hosted at www.guitaretab.com. Chordie works as a search engine and provides on-the-fly formatting. Chordie does not index songs against artists'/composers' will. To remove this song please click here.

This song is displayed as text-only. Transposing and tuning is only available for chordpro-songs.

Login - add to songbook

Rating click stars to rate

Layout
Accuracy

SHARE PAGE  




You need to log in to post comments