Guitar Tabs, Chords and Lyrics


The Only One  Cure

-------------------------------------------------------------------------------



-------------------------------------------------------------------------------

[F]Bbsus2  [-]- [133211]x13311
Bb - x13331 (This chord works in the chorus in place of Bbsus2)
Gsus4 - x30033


Intro-
e|----5-----3----2---0------------5-----3----0---2---3-----------------------|
B|--3-----3--------------3------3-----3--------------------------------------|
G|4-----4------2---2---2------4-----4------0---0---0-------------------------|
D|---------------------------------------------------------------------------|
A|---------------------------------------------------------------------------|
E|---------------------------------------------------------------------------|
e|----5-----3----2---0------------------------0~--3~--5~--7\-----------------|
B|--3-----3--------------3----1~--3~--5~--8\---------------------------------|
G|4-----4------2---2---2-----------------------------------------------------|
D|---------------------------------------------------------------------------|
A|---------------------------------------------------------------------------|
E|---------------------------------------------------------------------------|



Verse-

[G]Oh I love, Oh I love, Oh I [D]love
Bm (or Gmaj7/B)
What you do to my head
When you pull me u[C]pstairs
And you push me [G]to bed.
I love what you [D]do to my head.
It’s a [C]mess up there!


Oh I love, oh I love, oh I love
What you do to my heart
When you push me back down
And then pull me apart.
I love what you do to my heart.
It’s the best, oh yeah!

Oh I love, oh I love, oh I love
What you do to my lips
When you suck me inside
And you blow me a kiss.
I love what you do to my lips
It’s so sweet in there.

Oh I love, love, love, love
What you do to my hips
When you blow me outside
And then suck me like this.
I love what you do to my hips
It’s the beat oh yeah!


Chorus-

[F]You’re the only one I cry for
The only one I try to p[C]lease.
[F]You’re the only one I sigh for
The only one I die to s[C]queeze.
Bbsus2 (or Bb)
And it gets better everyday, I play
With you it’s such a sc[C]ream.
Bbsus2 (or Bb)
Yeah it gets better everyday, I say
With you it’s so ex[C]treme.
Bbsus2 (or Bb)
Yeah it gets wetter everyday, I stay
With you it’s like a[Gsus4] dream.


Oh I love, Oh I love, Oh I love
What you do to my skin.
Please slip me on
And slide me in.
I love what you do to my skin
It’s a passion oh yeah.

Oh I love, love, love, love
What you do to my bones
When you slide me up
And take me home.
I love what you do to my bones
It’s the crush oh yeah.

You’re the only one I cry for
The only one I try to please.
You’re the only one I sigh for
The only one I die to squeeze.
And it gets hazier anyway, I sway
With you it’s such a scream
Yeah it gets mazier every play, I say
With you it’s so extreme.
Yeah it gets crazier everyday, I stay
With you it’s like a dream.


Oh I l[G]ove, oh i love, oh I l[D]ove
What you do to me.


| / slide up
| \ slide down
| h hammer-on
| p pull-off
| ~ vibrato
| + harmonic
| x Mute note
===============================================================================

Important: The song above is NOT stored on the Chordie server. The original song is hosted at www.guitaretab.com. Chordie works as a search engine and provides on-the-fly formatting. Chordie does not index songs against artists'/composers' will. To remove this song please click here.

Text color:
Chord color:
Chord grids: 
Font size:    
Page size: 

C D F G Gsus4
variations - click chord images

Login - add to songbook

Transpose chords

Tuning

Rating click stars to rate

Layout
Accuracy

SHARE PAGE  




You need to log in to post comments