Guitar Tabs, Chords and Lyrics


A Strange Day  Cure

e|---------------------------------------------------------------------


B|--------8---10-10-10-8--8-7---------10--10-8---------5-5-5-6-6-8-8-8-


G|-9-9-10-----------------------9-9-9------------7-7-7-----------------


D|---------------------------------------------------------------------


A|---------------------------------------------------------------------


E|---------------------------------------------------------------------


e|---------------------------------------------------------0-3---1---3-


B|-6-6-6-5-5-5b6r5-1-0-1-3-5-5-5b6r5-1-0-1-3-0-----0-0-0-0-------------


G|---------------------------------------------2-----------------------


D|---------------------------------------------------------------------


A|---------------------------------------------------------------------


E|---------------------------------------------------------------------

[A]Give me your [B]eyes that I can see[G]
[A]The blind man [B]kissing my hands[G]
The sun is humming
My head turns to dust as he plays on his knees
..
[F]And the sand and the sea glows I [G]close my eyes
[F]Move slowly through [G]drowning waves
[A]Going away on a [B]strange day
And I laugh as I drift in the wind
Blind
Dancing on a beach of stone
Cherish the faces as they wait for the end
A sudden hush across the water
And we're here again
[E]My head falls back and the walls crashed in[F]
[G]And the sky and the impossible explodes[A]
[B]And for one moment I remember a song[C]
[D]An expression of sounds
And the everything is [E]gone forever
That's about what I remember, Robert's lead is very easily played on
the 2 thinest strings I could post the notes if you can't figure it
out.
Let me know how it goes.
[--]Date: Fri, 23 Feb 90 09:55:00 EST
From: Mario Dorion SSE Sun Montreal
Here's this solo, hope I can make the notation clear.
The different lines are the different strings of your guitar starting
with the thinnest up and going down to the thickest. The numbers are
the fret you have to hold.
And then everything is gone forever ...
1 - 3 1 0 3 1 0 0 1 3 1 0 0 1 0 0 0 1 0 3 1
2 - 3 3 3 1 0 1 3 3 1 0 1 0
3 - 2 0
[4]  [-]  [5]  [-]  [6]So[-] it starts on the thinnest string with G-F-E and then on the next
string with D, back to the thin string with G-F-E and so on ...
Also during the "My head falls back ..." verse, the lead guitar plays
E-F-G-A-B-C-D-E-F on the thinnest string.

Let me know if I'm clear?
Also, has any one else played something I posted, how did it go?

Important: The song above is NOT stored on the Chordie server. The original song is hosted at www.guitaretab.com. Chordie works as a search engine and provides on-the-fly formatting. Chordie does not index songs against artists'/composers' will. To remove this song please click here.

Text color:
Chord color:
Chord grids: 
Font size:    
Page size: 

A B C D E F G
variations - click chord images

Login - add to songbook

Transpose chords

Tuning

Rating click stars to rate

Layout
Accuracy

SHARE PAGE  




You need to log in to post comments