Guitar Tabs, Chords and Lyrics


Homesick   Cure









        HomeSick  by the CURE


------3-0---------|--------3--0--------------|
-1------------1---|-1------------------------|
---2------------2-|----2---------------------|
------------------|--------------------------|
-0----------0-----|-------------------2------|
------------------|-3--------------3---------|

-------0-----5-7^8|-7--5--3------3---------|
---------1--------|---------5--3-----2-----|
-2----------------|------------------------|
----3-------------|------------------------|
-5----------------|------------------------|
------------------|------------------------|

-----3---0-------3|-0-------3----------------|
-1----------------|---1----------------------|
---2----------2---|------2-----------2-------|
------------------|--------------------------|
-0----------0-----|--------------------------|
------------------|-3------------3-----------|

-------0----------|-12-10-8--8----5-----5--|
----------1-----12|-13-12-10-18------5-----|
-2-----------14---|------------------------|
----3-------------|------------------------|
-5----------------|------------------------|
------------------|------------------------|

The Guitar during the above piano goes
SOMETHING like:
---------------|-----------------------------|
---------------|-----------------------------|
-2-----2--4--5-|-4-----4---5--4--------------|
---------------|-----------------------------|
---------------|-----------------------------|
---------------|-----------------------------|

----------------|--------------------------|
----------------|--------------------------|
-5--4--2--2--4/5|--4--2--2---4--5/7--------|
----------------|--------------------------|
----------------|--------------------------|
----------------|--------------------------|

-----------------|---------------------------|
-----------------|---------------------------|
-7/9-9-9-9-7-7-7-|-7\5-5--5--5--4-5-4--------|
-----------------|---------------------------|
-----------------|---------------------------|
-----------------|---------------------------|

Ok you get the idea
Now the guitar RIGHT before the Lyrics go

-------------------|-----------------------|
-------------10----|-------------12--------|
--------12-------12|-------14--------------|
-----10------------|----12-----------------|
-12----------------|-14--------------------|
-------------------|-----------------------|

---------------|-----------------------------|
------------0--|---------------0-------------|
-------12------|---------12------------------|
----15---------|-----15----------------------|
-15------------|--15-------------------------|
---------------|-----------------------------|

Lyrics START




Important: The song above is NOT stored on the Chordie server. The original song is hosted at www.guitaretab.com. Chordie works as a search engine and provides on-the-fly formatting. Chordie does not index songs against artists'/composers' will. To remove this song please click here.

This song is displayed as text-only. Transposing and tuning is only available for chordpro-songs.

Login - add to songbook

Rating click stars to rate

Layout
Accuracy

Jango Player

SHARE PAGE  




You need to log in to post comments