Guitar Tabs, Chords and Lyrics


Push  Cure

----------------------------------------------------------------------------



----------------------------------------------------------------------------

e|-10-10-10-9-------------------------------------------------------------|
B|--0--0--0-0--10----10-8-------------------------------------------------|
G|--------------0-----0-0--11-11-11-9-------------------------------------|
D|--------------------------0--0--0-0--11----11-9-------------------------|
A|--------------------------------------0-----0-0-------------------------|
E|------------------------------------------------------------------------|
e|-10-10-10-9-------------------------------------------------------------|
B|--0--0--0-0--10----10-8-------------------------------------------------|
G|--------------0-----0-0--11-12-14-14-12-11------------------------------|
D|--------------------------0--0--0-0---0--0--11----11-9------------------|
A|---------------------------------------------0-----0-0------------------|
E|------------------------------------------------------------------------|
e|-3-3-2-2-0----3-3-2-2-0----2-2-0-0-2----2-2-0-0-2-----------------------|
B|-3-3-3-3-3----3-3-3-3-3----3-3-3-3-3----3-3-3-3-3-----------------------|
G|-0-0-0-0-0----0-0-0-0-0----2-2-2-2-2----2-2-2-2-2--------(2x)-----------|
D|-0-0-0-0-2----0-0-0-0-0----0-0-0-0-0----0-0-0-0-0-----------------------|
A|-2-2-0-0-2----2-2-0-0-2-------------------------------------------------|
E|-3-3-2-2-0----3-3-2-2-0-------------------------------------------------|
e|-0-0-0-0-0----0-0-0-0-0----2-2-0-0-2----2-2-0-0-2-----------------------|
B|-2-2-0-0-0----2-2-0-0-0----3-3-3-3-3----3-3-3-3-3-----------------------|
G|-2-2-2-2-2----2-2-2-2-2----2-2-2-2-2----2-2-2-2-2-----------------------|
D|-2-2-2-2-2----2-2-2-2-2----0-0-0-0-0----0-0-0-0-0-----------------------|
A|-0-0-0-0-0----0-0-0-0-0-------------------------------------------------|
E|------------------------------------------------------------------------|
e|--------------------(2X)-------------------------------(2X)-------------|
B|----(2X)--------------------------(2X)----------------------------------|
G|----------------11-11-9-9-11-------------------14-14-12-12-11----11-----|
D|-11-11-9-9---------------------11-11-9-9----------------------12--------|
A|-----------12----------------------------12-----------------------------|
E|------------------------------------------------------------------------|
G ? Em7
Go go go!

G ? Em7
Go go go!
D Dsus2 D ... D Dsus2 D
Push him away

G ? Em7
No no no!

G ? Em7
No no no!
D Dsus2 D ... D Dsus2 D
Don't let him stay...


He [A]gets in[Asus2]side to stare at her
The [A]seeping [Asus2]mouth  The mouth that knows
The [D]se-[Dsus2]cret   [D]you           [D]Al-[Dsus2]ways   [D]you
A [A]smile to [Asus2]hide the fear away
Oh! [A]smear this [Asus2]man across the walls
Like [D]straw[Dsus2]berries [D]n cream
It's the [D]only [Dsus2]way    [D]       It's the only way to be
E[D]xactly the [Dsus2]same clean [D]room
E[D]xactly the [Dsus2]same clean [D]bed
But I've [D]stayed a[Dsus2]way too [D]long this time
And I've [D]got [Dsus2]too big to [D]fit this time...
V-normal downstroke
^-upstroke
============================================================================

Important: The song above is NOT stored on the Chordie server. The original song is hosted at www.guitaretab.com. Chordie works as a search engine and provides on-the-fly formatting. Chordie does not index songs against artists'/composers' will. To remove this song please click here.

Text color:
Chord color:
Chord grids: 
Font size:    
Page size: 

A Asus2 D Dsus2
variations - click chord images

Login - add to songbook

Transpose chords

Tuning

Rating click stars to rate

Layout
Accuracy

Jango Player

SHARE PAGE  




You need to log in to post comments