Guitar Tabs, Chords and Lyrics


Loudest Sound  Cure

e|---------------------------------------------------------------------------|


B|------------------------13-13-13-12-12-------------------------------------|


G|---9-9-9-10-12-12----------------------9-----9-9-9-10-12-12----------------|

D|------------------10----------------------------------------10-------------|
A|---------------------------------------------------------------------------|
E|---------------------------------------------------------------------------|
e|---------------------------------------------------------------------------|
B|-------------------------------------------------10----10-10-10-12-12-13---|
G|---------------------------------------9-9-10-12-------------------------9-|
D|---10-10-12-10-10-12-10-------10-10-12-------------------------------------|
A|------------------------10-------------------------------------------------|
E|---------------------------------------------------------------------------|
e|---------------------------------------------------------------------------|
B|---------------------------------------------------------------------------|
G|---9-9-9-10-12-12----------------------------------------------------------|
D|------------------10---10-10-12-10-10-12-10-----10-10-12-10-10-12-10-------|
A|--------------------------------------------10-----------------------10----|
E|---------------------------------------------------------------------------|
   [F]  [C]  [A]  [G]  [F]  [C]  [D]  [F]                    
Piano arranged for guitar, comes in with chords at 00:03

E:--------------------------------3-----------------------------------|
B:--------5-----5-----5-----5--------5--------------------------------|
G:-----------5-----5-----5-----5--------5--5--7--5--------------------|
D:--------------------------------------------------------------------|
A:--------------------------------------------------------------------|
E---------------------------------------------------------------------|



NOTE: THERE IS ANOTHER LITTLE RIFF THAT COMES AFTER THE ONE ABOVE AND
I AM WORKING ON IT AT THE MOMENT SO BARE WITH ME!


Chorus Chords:

   [G]  [A]  [Bb]   [C]  [D]  [C]                       

Important: The song above is NOT stored on the Chordie server. The original song is hosted at www.guitaretab.com. Chordie works as a search engine and provides on-the-fly formatting. Chordie does not index songs against artists'/composers' will. To remove this song please click here.

Text color:
Chord color:
Chord grids: 
Font size:    
Page size: 

A Bb C D F G
variations - click chord images

Login - add to songbook

Transpose chords

Tuning

Rating click stars to rate

Layout
Accuracy

SHARE PAGE  




You need to log in to post comments