eToCache5 = ""; ?> Taking Off by Cure - guitar chords, guitar tabs and lyrics - chordie

Taking Off

Cure

 F#m-244222
 Em - 022000
A - x02220
C - x32010
D - xx0232

The stuff:

G, A, Em, F#m

|-----10-10-10--------------------------|
|---8----------12--12-12--10-10-10------|
|----------------------------------11---|
|---------------------------------------|
|---------------------------------------|
|---------------------------------------|
|-------------------------------------------| (2x)
|---8--10--8-8-8----------------------------|
|----------------9--11--12--11-11-11--9-7---|
|-------------------------------------------|
|-------------------------------------------|
|-------------------------------------------|


 GA
Tomorrow I can start again
 EmF#m
With back to earth and carry on
 GA
The same as I did yesterday
 EmF#m
Yeah I'll pick it up once more
 GA
And morning I'll be onto it
 Em
From square one start
 F#mG
And push it for a bit
 A
Like I do everyday...
 EmF#m
I'll get it down for sure

 EmF#m
But tonight I climb with you
 Em
Tonight
 A
So high with you
 EmF#m
Tonight I shine with you
 Em
Tonight
 AGAEmF#m
Oh I'm so alive   with you         

|-----10-10-10--------------------------|
|---8----------12--12-12--10-10-10------|
|----------------------------------11---|
|---------------------------------------|
|---------------------------------------|
|---------------------------------------|
|-------------------------------------------| (2x)
|---8--10--8-8-8----------------------------|
|----------------9--11--12--11-11-11--9-7---|
|-------------------------------------------|
|-------------------------------------------|
|-------------------------------------------|


 GA
Tomorrow I'll begin again
 EmF#m
With heavy head to hold it
 GA
As I do it all like yesterday
 EmF#m
Yeah I'll break it out again
 GA
And morning I'll be there in time
 Em
For clock back move
 F#mG
And make it for awhile
 A
To get through everyday...
 EmF#m
I'll roll it out the same

 EmF#m
But tonight I climb with you
 Em
Tonight
 A
So high with you
 EmF#m
Tonight I shine with you
 Em
Tonight
 A
I'm so alive...

 CDCD
With you it's always here and never there   
 CDCD
With you it's always here and never where   
 CDCD
With you it's always here and never how   
 CDC
With you it's always here and always now

 GA
Yeah tomorrow I will start again
 EmF#m
With back to earth and carry on
 GA
The same as I did yesterday
 EmF#m
Yeah I'll pick it up once more
 GA
And morning I'll be onto it
 EmF#m
From square one start and "bit a for it push"
 GA
   Like I do everyday...
 EmF#m
I'll get it down for sure

 EmF#m
But tonight I climb with you
 Em
Tonight
 A
So high with you
 EmF#m
Tonight I shine with you
 Em
Tonight

That's all! Any doubt you can email me on s.chapuisat@bol.com.br... bye...

By: Cristiano Tulio


A C D Em F#m G
variations - click chord images
Transpose chords:
Tuning:
Cool service:
View: Size:
A  A  A
Rating:
Layout:
  • Currently 3.2/5 Stars.
  • 1
  • 2
  • 3
  • 4
  • 5
 
Accuracy:
  • Currently 3.3/5 Stars.
  • 1
  • 2
  • 3
  • 4
  • 5
 
click stars to rate
Chordie recommends:
Learn to play songs at Jamplay.com with video guitar lessons
Songbook:
Login to add this song to your songbook
Support the artist
Preview/buy this song
MSN Music
Why this non-profit ad?

 
login to add comments/video/corrections