Guitar Tabs, Chords and Lyrics


Plastic Passion   Cure



This is a very easy, but very good song by the Cure, in their early days.

Vers:

   F#5  D5  B5  A5  G#5
e---------------------|
B---------------------|
G--11---7---4---------|
D--11---7---4---7---6-|
A--9----5---2---7---6-|
E---------------5---4-|


Chorus (Oh! it's a plastic passion):
   C#5 C5
e--------|
B--------|
G--6---5-|
D--6---5-|
A--4---3-|
E--------|

Plastic passion is a hard to handle
Plastic passion is a sold out scandal
Oh! it's a plastic passion

Plastic passion is the ladies lover
Plastic passion is the marble mother
Oh! it's a plastic passion

Plastic passion is a diamond delight
Plastic passion is the nadir of night
Oh! it's a plastic passion

SOLO:
--------------------------------4-----------------------------------|
----------------5--7-7-7-7-7-5-7-----------------5------------------|
-6-6-6-6-6-6-4-6------------------6-6-6-6-6-6-4-6-----------------1-|
---------------------------------------------------4-4-4-4-4-4-2-4--|
--------------------------------------------------------------------|
--------------------------------------------------------------------|


--------------------------------------------------------------------|
----------------5---------------------------------------------------|
-6-6-6-6-6-6-4-6-----------------1----------------------------------|
------------------4-4-4-4-4-4-2-4-----------------2-----------------|
-----------------------------------4-4-4-4-4-4-2-4------------------|
----------------------------------------------------3-3-3-3-2-2-2-0-|


Plastic passion is a hycoscine heart
Plastic passion is a transparent tart
Oh! it's a plastic passion

Plastic passion is a gold guarantee
This plastic passion is murdering me


Important: The song above is NOT stored on the Chordie server. The original song is hosted at www.guitaretab.com. Chordie works as a search engine and provides on-the-fly formatting. Chordie does not index songs against artists'/composers' will. To remove this song please click here.

This song is displayed as text-only. Transposing and tuning is only available for chordpro-songs.

Login - add to songbook

Rating click stars to rate

Layout
Accuracy

SHARE PAGE  




You need to log in to post comments