Guitar Tabs, Chords and Lyrics


Piggy In The Mirror  Cure

Shap[E]es in the drink like [F]christ
Cr[E]acks in the pale blue[F] wall
I'[E]m walking slowly and quickly but[F]
Always away
I[E]'m twisting twisting to t[F]he floor

e-10-8-7--|
B-------8-|
G---------|
D---------| RIFF 1
A---------|
E---------|


G A (Riff 1)
Flowers in your mouth and the same dry
G A (Riff 1)
Song the routine from laughter land
G A (Riff 1)
16 white legs and a row of teeth
D E*
I watch you in secrecy

Yo[E]ur dying for the hope is[F] gone
Fro[E]m here we go nowhere [F]again
I'[E]m trapped in my face and I[F]'m changing

Too much
I c[E]an't climb out the way I fe[F]ll in

J[G]ump with me
A (Riff 1)
For that old forgotten dance
G A (Riff 1)
The midnight sun will burn you up
Your[G] life is cold
A (Riff 1)
Your life is hot
D E*
Your life's too much for words


SOLO:

e-----------------------------------------------------------------------/
B-----------------------------------------------------------------------/
G---------14--14-12-14-12-------------------------14--14-12-14-12-------/
D-14-14-15---------------15-14--14-12-14-15--14-12---------------15-14--/
A-----------------------------------------------------------------------/
E-----------------------------------------------------------------------/
e-----------------------------------------------------------------------/
B-----------------------------------------------------------------------/
G----------------------------------------------------12-14-12--12-14-12-/
D------12--12--12--------------------------12-14-15-15-------15---------/
A-14-15------15--15-14-12----------12-14-15-----------------------------/
E--------------------------12-13-15-------------------------------------/
e-----------------------------------------------------------------------|
B--------12--12-15-12-15-15~--------------------------------------------|
G---12-14---------------------------------------------------------------|
D-15--------------------------------------------------------------------|
A-----------------------------------------------------------------------|
E-----------------------------------------------------------------------|


G A (Riff 1)
These occasions are such a relief
G A (Riff 1)
Another point another view to send
hey hey hey![G] We start to talk
A (Riff 1) D
And it's all so safe oooh
E*
I feed you in my dreams

Foo[E]tsteps on a wire
High[F] above my head
The s[E]tain reveals my real int[F]ention
I[E]'m the waiting beast
I'm [F]the twisted nerve
As[E] I dance dance
Back to the b[F]ody in my bed
As[G] I dance dance
Back to the b[A]ody in my bed
to [G]the body in my bed [A]

E*
Look at the piggy
F*
Piggy in the mirror (REPEAT)

Chords:
E: 0 2 2 1 0 0 , F: 1 3 3 2 1 1 , G: 3 5 5 2 3 3 , A: 5 7 7 6 5 5

D: X 5 7 7 7 5 , E*: X 7 9 9 9 7 , F*: X 8 10 10 10 8


Any doubt please let me know

i love cure, hope be on the right way:P

Important: The song above is NOT stored on the Chordie server. The original song is hosted at www.guitaretab.com. Chordie works as a search engine and provides on-the-fly formatting. Chordie does not index songs against artists'/composers' will. To remove this song please click here.

Text color:
Chord color:
Chord grids: 
Font size:    
Page size: 

A E F G
variations - click chord images

Login - add to songbook

Transpose chords

Tuning

Rating click stars to rate

Layout
Accuracy

SHARE PAGE  




You need to log in to post comments