Guitar Tabs, Chords and Lyrics


Great Decay   Cursive



If anyone has the full thing, send it please :) this is all I have

e------------------------------------------|
b------------------------------------------|
g------------------------------------------|
d------------------------------------------|
a--------7------7-----7------7-----5-5-----|
e--6-6----6-6---6-6---6-6--6-0-------------|


e-------------------------------------------|
b-------------------------------------------|
g-------------------------------------------|
d------------------7-7----------------------|
a-----------8-8---------5-5-----------------|


Important: The song above is NOT stored on the Chordie server. The original song is hosted at www.guitaretab.com. Chordie works as a search engine and provides on-the-fly formatting. Chordie does not index songs against artists'/composers' will. To remove this song please click here.

This song is displayed as text-only. Transposing and tuning is only available for chordpro-songs.

Login - add to songbook

Rating click stars to rate

Layout
Accuracy

SHARE PAGE  




You need to log in to post comments