DB7ED
-------------------------------------------------------------------|
-3-----------3-----4-----------4-----5-----5-----5-7-8-7-----------|
---2-----------2-----2-----------2-----4-----4---4-----7--------7--|
-----4---4-------4-----4---4-------4-2---2-----2-2-----7------7----|
-5-----5---5-------2-----2---2-------------------------5----5------|
-------------------------------------------------------------------|
--------------------------------------------------------------------|
-7h10p7------5h7p5-------------3-----3-5-----3-------3---- 5-4------|
---------7----------7p4-2----4----4-------4-----2---2---2--2-2------|
-----------7---------------2--------2-------2-4---4-------- 4-4-----|
--------------------------------------------------------------------|
--------------------------------------------------------------------|


 DB7ED
-------------------------------------------------------------------|
-3-----------3-----4-----------4-----5-----5-----5-7-8-7-----------|
---2-----------2-----2-----------2-----4-----4---4-----7--------7--|
-----4---4-------4-----4---4-------4-2---2-----2-2-----7------7----|
-5-----5---5-------2-----2---2-------------------------5----5------|
-------------------------------------------------------------------|
-----------------------------------------------------------------|
-7h10p7------5h7p5-------------3-----3-5-----3-------3----3------|
---------7----------7p4-2----4----4-------4-----2---2---2---2----|
-----------7---------------2--------2-------2-4---4-----------4--|
-----------------------------------------------------------------|
-----------------------------------------------------------------|

 CG
-----------------------------------------------------------------------------|
-8---------8----8----------7h10p7----5h7p5----------3-3-5--- 3------3--5-4---|
---9----9---9-----7---------------7---------7p4-2--4-4----4---2---2--2-2-2---|
----10-------10----9--9-------------7-------------2---2----2-4--4------4-4---|
-10---10--10----10--10-10----------------------------------------------------|
-----------------------------------------------------------------------------|


repeat all this once, then strum: D G
a few times

repeat the main part again, then strum D and G for the outro






























B7 C D E G
variations - click chord images
Transpose chords:
Tuning:
Cool service:
View: Size:
A  A  A
Rating:
Layout:
  • Currently 2.5/5 Stars.
  • 1
  • 2
  • 3
  • 4
  • 5
 
Accuracy:
  • Currently 2.7/5 Stars.
  • 1
  • 2
  • 3
  • 4
  • 5
 
click stars to rate
Chordie recommends:
Check out JamPlay.com for online video guitar lessons
Songbook:
Login to add this song to your songbook
Support the artist
Preview/buy this song
MSN Music
Why this non-profit ad?

 
login to add comments/video/corrections