"yes"; ?> I Just Died In Your Arms Tonight by Cutting Crew - guitar chords, guitar tabs and lyrics - chordie

I Just Died In Your Arms Tonight

Cutting Crew

------------------------------------------------------------------------|

-----7777777710-10-10-8-8—8-777-555------777----------------------------|
-----7777777711-11-11-9-9-9-777-66666666-66666666-----------------------|
-----------------------------------77777----88888-----------------------|
------------------------------------------------------------------------|
------------------------------------------------------------------------|

 Bm
-------5------5-7-2-------------|
---2-3----2-3-------------------|
--------------------------------|
--------------------------------|
--------------------------------|
--------------------------------|


Verse
 Bm
    I keep looking for someone thing I can't get
 G
    Broken hearts lie all around me and I
 AF#
 don't see an easy way      to get out  of this
 Bm
 Her diary it sits by the bedside table.
 G
 The curtains are closed, the cat's in the cradle.
 AF#
 Who would've though that a boy like me could come to this

Oh Oh Oh Oh

lead in...
--------------|
--------------|
--2-2---2-2---|
--2-2---2-2---|
------4-----4-|
--------------|


Chorus alternate between this ending and lead in
|----2-----|----------|------0-0-----|---------|
|----3-3---|----0---- |----------20--|---------|
|---4---4--|----0-----|---1/2------2-|---------|
|--4-----4-|---2---2--|--2-----------|-434342--|
|-2--------|--2-----2-|-0------------|-------5-|
|----------|-0--------|--------------|---------|


Chorus
 BmEmAF#m
 I, I just died in your arms tonight. It must've been something you said
 BmEmAF#m
   I just died in your arms tonight,            Oh Oh Oh
 BmEmAF#m
 (I) I just died in your arms tonight, It must've been some kind of
 BmF#mF#m
 Kiss.   I  should've walked away, I should've walked away
 Gmaj7
 I should've walked away

-7-7---5-5----------------7-|	-------5--
----7-7---5-5-7-7---------7-|	---2-3----
-----------------7-7-9-7-7--|
------------------------9---|
----------------------------|
----------------------------|


Verse 2 (Bm G A F#)

Is there any just cause for feeling like this?
On the surface I'm a name on a list
I try to be discreet, then blow it again
I've lost and found, it's my final mistake ,
She's loving by proxy, no give and all take,
'Cause I've been thrilled to fantasy one too many times

Chorus

Bridge
 G
    It was a     long hot night
 Em
 She made it easy. She make it feel right
 G
 But now it's over the moment has gone I
 F#BmF#
 follwed my hands -- not my head -- I know I was wrong

Solo
-14--------12-------------------------------------------------------------|
---12-12-----10------------------3-5-3-5-3-3------------------------------|
----------------2\1/2-4^4^-4^-2-4-4-4-4-4---4-6-4-2-2---------------------|
--------12------2\1/2------------------------------4-4-2-0-2-0---0--------|
----------------------------------------------------------4---4-2-4-2-0-2-|
--------------------------------------------------------------------------|


Breakdown (same as intro)
------------------------------------------------------------------------|
-----7777777710-10-10-8-8—8-777-555---5--777---7------------------------|
-----7777777711-11-11-9-9-9-777-66666666-66666666-----------------------|
-----------------------------------777-7----888-9-----------------------|
------------------------------------------------------------------------|
------------------------------------------------------------------------|


I, I just died in your arms tonight
It must been something you said
I just died in your arms tonight...

lead in...
--------------|
--------------|
--2-2---2-2---|
--2-2---2-2---|
------4-----4-|
--------------|


Chorus


A Bm Em F# F#m G Gmaj7
variations - click chord images
Transpose chords:
Tuning:
Cool service:
View: Size:
A  A  A
Rating:
Layout:
  • Currently 3/5 Stars.
  • 1
  • 2
  • 3
  • 4
  • 5
 
Accuracy:
  • Currently 2.7/5 Stars.
  • 1
  • 2
  • 3
  • 4
  • 5
 
click stars to rate
Chordie recommends:
Learn how to play guitar at JamPlay.com
Songbook:
Login to add this song to your songbook
Support the artist
Preview/buy this song
MSN Music
Why this non-profit ad?

 
login to add comments/video/corrections