Chordie logo


Costa Del Sol   Cv Jorgensen



Tabbed by PLZKLLME0080


Tuning: Standard (EADGBE)

      Rythem: this is played throughout most of the song.

E--3---3------3---2--2---2---2--|
B--5---5------5---5--5---5---2--|
G--5---5------5---5--5---5---2--|
D-------------------------------|
A-------------------------------|
E-------------------------------|

      Lead: (lets just call it that)

E----12-10-----------------------------------8--10--8-----|
B-13-----------8-9-10--------8-10----10-8-10-----------10-|
G--------------------------9------------------------------|
D---------------------------------------------------------|
A---------------------------------------------------------|
E---------------------------------------------------------|

E-----8-7-6--------------------------------10-13--12------|
B--10----------6-7-8----8-10-11--10-11--13----------------|
G---------------------------------------------------------|
D---------------------------------------------------------|
A---------------------------------------------------------|
E---------------------------------------------------------|

Play that how ever many times you want, then go to this part...


      Rythem
E--0---0---0------1---1--1---1---1--|
B--1---1---1------3---3--3---3---3--|
G--2---2---2------2---2--2---2---2--|
D-----------------------------------|
A-----------------------------------|
E-----------------------------------|


      Lead
E---12----10---12-----10-----------15----13---12-----10-----------|
B-----------------------11-10--------------------------11-10------|
G----------------------------10-----------------------------10----|
D-----------------------------------------------------------------|
A-----------------------------------------------------------------|
E-----------------------------------------------------------------|

      Rythem
E--2---2---2------3---3--3---3---3--|
B--3---3---3------5---5--5---5---5--|
G--4---4---4------6---6--6---6---6--|
D-----------------------------------|
A-----------------------------------|
E-----------------------------------|


      Lead
E---12----13---14-----9-----------17----15---14-----9-----------|
B-----------------------10-8--------------------------10-8------|
G----------------------------9-----------------------------9----|
D---------------------------------------------------------------|
A---------------------------------------------------------------|
E---------------------------------------------------------------|



Important: The song above is NOT stored on the Chordie server. The original song is hosted at www.guitaretab.com. Chordie works as a search engine and provides on-the-fly formatting. Chordie does not index songs against artists/composers will. To remove this song please click here.

This song is displayed as text-only. Transposing and tuning is only available for chordpro-songs.

Login - add to songbook

Rating click stars to rate

Layout
Accuracy

SHARE PAGE  




You need to log in to post comments