""; ?> True Colors by Cyndi Lauper - guitar chords, guitar tabs and lyrics - chordie

True Colors

Cyndi Lauper

 AmAm/BCFAmAm/BCF
e|3-----3-3-----3-|3---------------|3-----3-3-----3-|3---------------|
B|--0-1-----0-1---|--0-1-------0-1-|--0-1-----0-1---|--0-1-----------|
G|----------------|------2---------|----------------|------2---------|
D|----------------|----------------|----------------|----------------|
A|0-----0-2-----2-|3---------------|0-----0-2-----2-|3---------------|
E|----------------|------1---1-----|----------------|------1---------|


VERSE 1:
 AmGCC/E+5
You with the sad eyes, don't be discouraged
 FAmG
Oh I realize it's hard to take courage
 CDmEmF
In a world full of people, you can lose sight of it all
 AmGF/CC
And the darkness inside you make you feel so small

CHORUS:
 FCGsus4G
But I'll see your true colors shining through 
 FCFGsus4G
I'll see your true colors, And that's why I love you
 FCFAm
So don't be afraid to let them show
F/C C F/C C Gsus4b (3xx533) Am
Your true colors, True colors are beautiful, like a Rainbow

INTERLUDE (Intro)

VERSE 2:
Show me a smile then, don't be unhappy,
can't remember when I last saw you laughing
If this world makes you crazy and you've taken all you can bear
You call me up, because you know I'll be there

CHORUS

INTERLUDE (Intro)

VERSE 3:
Oooo....(whispered) can't remember when I last saw you laughing
(sung) If this world makes you crazy and you've taken all you can bear
You call me up, because you know I'll be there

FINAL CHORUS:
And I'll see your true colors shining through
I'll see your true colors and that's why I love you
So don't be afraid to let them show
Your true colors, true colors,
 F/CCGsus4G
 true colors are shining through
 FGsus4FGsus4G
I'll see your true colors, and that's why I love you
 FCFAmF/CCF/CC
So don't be afraid to let them show Your true colors, true colors
 Gsus4bAm
 Beautiful, Like a Rainbow 
                         |3-----3-3-----3-|0h1-0-------------||
                         |--0-1-----0-1---|------3-1---------||
                         |----------------|--------2---------||
                         |----------------|------------------||
                         |0-----0-2-----2-|3-----------------||
                         |----------------|--------1---------||


Am Am/B C Dm Em F F/C G Gsus4
variations - click chord images
Transpose chords:
Tuning:
Cool service:
View: Size:
A  A  A
Rating:
Layout:
  • Currently 3.8/5 Stars.
  • 1
  • 2
  • 3
  • 4
  • 5
 
Accuracy:
  • Currently 3/5 Stars.
  • 1
  • 2
  • 3
  • 4
  • 5
 
click stars to rate
Chordie recommends:
Learn to play this song & others via video guitar lessons at JamPlay.com
Songbook:
Login to add this song to your songbook
Support the artist
Preview/buy this song
MSN Music
Why this non-profit ad?

 
login to add comments/video/corrections