Chordie logo

Pistol Pistol   D12



-------------------------------------------------------------------------------
			     PISTOL PISTOL - D12
-------------------------------------------------------------------------------
Tabbed by: cuttingham
Email:

Tuning: standard

"Need an anthem to amp you, then this the sh-t to"
There's only the bass tab. Here's the melody.


e|---------------------------------------------------------------------------|
B|---------------------------------------------------------------------------|
G|-----------6---4---6--------6---4--6---------6---4---6---------6--4--6-----|
D|------4---------------4-------------------4-------------4------------------|
A|---------------------------------------------------------------------------|
E|---------------------------------------------------------------------------|

e|---------------------------------------------------------------------------|
B|---------------------------------------------------------------------------|
G|-----------7---6---4--------7---6--4---------7---6---4---------7--6--4-----|
D|------4---------------4-------------------4-------------4------------------|
A|---------------------------------------------------------------------------|
E|---------------------------------------------------------------------------|


...and the melody, an octave higher...

e|-----------9---7---9--------9---7--9---------9---7---9---------9--7--9-----|
B|------7---------------7------------------7--------------7------------------|
G|---------------------------------------------------------------------------|
D|---------------------------------------------------------------------------|
A|---------------------------------------------------------------------------|
E|---------------------------------------------------------------------------|

e|-----------10--9---7--------10--9--7---------10--9---7---------10-9--8-----|
B|------7---------------7-----------------7--------------7-------------------|
G|---------------------------------------------------------------------------|
D|---------------------------------------------------------------------------|
A|---------------------------------------------------------------------------|
E|---------------------------------------------------------------------------|

The rhythm is the hard part, but shouldn't take too long to get. Most notes are staccato.
"you pray that I don't hit, I ain't equipped to miss u." 

Important: The song above is NOT stored on the Chordie server. The original song is hosted at www.guitaretab.com. Chordie works as a search engine and provides on-the-fly formatting. Chordie does not index songs against artists/composers will. To remove this song please click here.

This song is displayed as text-only. Transposing and tuning is only available for chordpro-songs.

Login - add to songbook

Rating click stars to rate

Layout
Accuracy

SHARE PAGE  

You need to log in to post comments