Chordie logo


Eagle Rock  Daddy Cool

e|---------12---|


B|--12-h14------|


G|--------------|

D|--------------|
A|--------------|
E|--------------|
e|------0--------------0----|
B|--------------2-----------|
G|--------------------------|
D|--------------------------|
A|--0---0---0-------0-----0-|
E|--------------------------|
e|------------------|-----------------------0----|
B|----3-------0-----|--2--------2----------------|
G|--------2---------|-----2-----------2----------|
D|------------------|----------------------------|
A|----0---0------0--|--0-----0-----0-----0-----0-|
E|------------------|----------------------------|
e|------------------|------------------------0------|----------------|
B|----3-------0-----|--2--------2-------------------|----3-----0-----|
G|--------2---------|------2----------2-------------|-------2--------|
D|------------------|-------------------------------|----------------|
A|----0---0------0--|--0------0----0-----0-------0--|----0--0-----0--|
E|------------------|-------------------------------|----------------|
e|------------------------|--------------------------|
B|------------------------|--------------------------|
G|2--2-----2-----2-----0--|-h1--1------1-----1-----0-|
D|------------------------|--------------------------|
A|0-----0-----0-----0-----|--0------0-----0-----0----|
E|------------------------|--------------------------|
[A]Hey Hey Hey [A]good old Eagle Rock's h[G]ere to stay,
[Bm]I'm just crazy 'bout the [D]way we move,
[A]Doin' the [E]Eagle Rock.
[A]Oh-oh-oh com[A]e on fast, you can [G]come on slow
[Bm]I'm just crazy 'bout the [D]way we move,
[A]Doin' the [E]Eagle [A]Rock.
Verse (tab played twice):
Go momma!
Well you're rockin' fine!
Why don't you give me a sign?
Just gotta give me a sign and we'll do the Eagle Rock.
Oh baby!
Well I feel so free!
Hmm what you do to me!
What you do to me when we do the Eagle Rock.

Chorus:
[A]Hey Hey Hey good old Eagle Rock's [G]here to stay,
[Bm]I'm just crazy 'bout the [D]way we move,
[A]Doin' the [E]Eagle Rock.
[A]Oh-oh-oh com[A]e on fast, you can [G]come on slow
[Bm]I'm just crazy 'bout the [D]way we move,
[A]Doin' the [E]Eagle [A]Rock.

PLAY tab TWICE then play SOLO

Verse (Tab played up to the fourth open A then at ‘out’ play G, Then Bm, Then D and then
the last two bars of the tab)
Now listen,
More we're steppin' out.
Yeah, gonna turn around,
Gonna turn around once and we'll do the Eagle Rock.

Chorus:
[A]Hey Hey Hey [A]good old Eagle Rock's h[G]ere to stay,
[Bm]I'm just crazy 'bout the [D]way we move,
[A]Doin' the [E]Eagle Rock.
[A]Oh-oh-oh com[A]e on fast, you can [G]come on slow
[Bm]I'm just crazy 'bout the [D]way we move,
[A]Doin' the [E]Eagle [A]Rock.

[A]Doin the E[E]agle R[A]ock.
[A]Doin the E[E]agle R[A]ock.
[A]Doin the E[E]agle R[A]ock.

Any enquires email me at ryhorn66@yahoo.com.au

Thank you for using my tabs

Tabbed by Ryan Rogers Age 14 2007

Important: The song above is NOT stored on the Chordie server. The original song is hosted at www.guitaretab.com. Chordie works as a search engine and provides on-the-fly formatting. Chordie does not index songs against artists/composers will. To remove this song please click here.

Text color:
Chord color:
Chord grids: 
Font size:    
Page size: 

A Bm D E G
variations - click chord images

Login - add to songbook

Transpose chords

Tuning

Rating click stars to rate

Layout
Accuracy

SHARE PAGE  




You need to log in to post comments

arrowmint (report)

good stuff Ryan