Chordie logo


Eagle Rock   Daddy Cool



-##









References: 



day_c@cs.uwa.oz.au (Craigus) writes:

	Does anybody happen to have the Tab for Eagle Rock, by Daddy Cool,
or maybe know how the main riff goes. Its a groovy little riff, and only
short so possibly somebody in the know could spare the time to VI it up
and post it. It would be much appreciated !

	Craig.
The most successful (& best) Australian rock song ever written? The one
given a prize by the Prime Minister *21 years* on & still the most covered
song in town? Sure! The main riff is:
Eagle Rock (Daddy Cool)

e|-----0-------|--0--------------|------------------|--0-------------|
B|-----------2-|-----3-----0-----|--2-------2-------|-----3-----0----|
G|-------------|--------2--------|-----2-------2----|--------2-------|
D|-------------|-----------------|------------------|----------------|
A|--0-----0----|--------------0--|--------0-------0-|--------------0-|
E|-------------|-----------------|------------------|----------------|

e|-------------------|--0-----------|-----------------|------------------------
B|--2-------2--------|-----3-----0--|-----------------|------------------------
G|-----2-------2-----|--------2-----|--2--2--2--2-----|--1--1--1--1--1--1--1--1
D|-------------------|--------------|--------------2--|--2--2--2--2--2--2--2--2
A|--------0-------0--|--------------|-----------------|--2--2--2--2--2--2--2--2
E|-------------------|--------------|-----------------|--0--0--0--0--0--0--0--0

Further instructions: As is printed in huge letters on the front cover
of the original EP:

"PLAY THIS RECORD LOUD!"

In return, anybody know I'm just crazy 'bout you babe? by DC?
  ,----_       ,_ |\            |\           | Peter Hawkins,
 / //   \     / / |/ __        _|/       .   | Lecturer, Computer Centre
/ // -__/      / /| /  |  | | | |    _______ | Monash University, Australia


Important: The song above is NOT stored on the Chordie server. The original song is hosted at www.guitaretab.com. Chordie works as a search engine and provides on-the-fly formatting. Chordie does not index songs against artists/composers will. To remove this song please click here.

This song is displayed as text-only. Transposing and tuning is only available for chordpro-songs.

Login - add to songbook

Rating click stars to rate

Layout
Accuracy

SHARE PAGE  




You need to log in to post comments