Chordie logo

Human After All   Daft Punk



There are three main guitars that are played throughout this song. A fourth one is 
A good effects pedal is needed to make this sound right.

Guitar 1
This is the vocodered voice which sounds like "Yeah" repeated. This is essentially the bass of the song.

e:-------------------------------------------------------------------------------|
B:1-1--1-1--1-1--1-1------------------------------------------1-1--1-1--3-3--3-3-|
G:-------------------------------------------------------------------------------|
D:--------------------1-1--1-1--1-1--1-1--3-3--3-3--3-3--3-3---------------------|
A:-------------------------------------------------------------------------------|
E:-------------------------------------------------------------------------------|

Guitar 2
This distorted guitar starts playing after the tab above is played four times.

e:------------------------------------------1-1--1-1--1-1--1-1---------------------|
B:--1-1--1-1--1-1--1-1--4-4--4-4--4-4--4-4----------------------1-1--1-1-----------|
G:------------------------------------------------------------------------3-3--3-3-|
D:---------------------------------------------------------------------------------|
A:---------------------------------------------------------------------------------|
E:---------------------------------------------------------------------------------|

Guitar 3
This is the main rift that plays through most of the song. The distortion of the guitar 
throughout the song.

e:----------------------------------------------------|
B:----------------------------------------------------|
G:----------------------------------------------------|
D:--------1--5-3---------------------1--3-1-----------|
A:----1-3------------------------1-3------------------|
E:1-3------------------------1-3----------------------|
               (We are human)              (after all)

e:---------------------------------------------------------|
B:---------------------------------------------------------|
G:---------------------------------------------------------|
D:--------1--5-6--------------------------1--5-3-----------|
A:----1-3-----------------------------1-3------------------|
E:1-3-----------------------------1-3----------------------|
                (Flesh unconvered)              (after all)

Guitar 4
This is the other vocodered voice, which says the lyrics in the brackets.

e:------------------------------------------------|
B:------------------------------------------------|
G:-----------------------1--1-1-1-----------------|
D:3-3--3--3----1-1-1---------------------3-3-3----|
A:------------------------------------------------|
E:------------------------------------------------|
  We are human after all flesh uncovered after all

Submitted by Krykos


Important: The song above is NOT stored on the Chordie server. The original song is hosted at www.guitaretab.com. Chordie works as a search engine and provides on-the-fly formatting. Chordie does not index songs against artists/composers will. To remove this song please click here.

This song is displayed as text-only. Transposing and tuning is only available for chordpro-songs.

Login - add to songbook

Rating click stars to rate

Layout
Accuracy

SHARE PAGE  

You need to log in to post comments