Guitar Tabs, Chords and Lyrics


Natural Man  Daisy Chainsaw



verse1   [D#]me are guy i've said, said it clearly
         [D#]i mess it up instead, i mean it really
chorus   [G]i am a [A#]god, [G#]no one under[G]stands, [A#]yeah [C](Mmmm)
         [C]i'm the one, [C]i'm the one, [C]natural [F]man
verse2 feels in me he eats, just when i want
friends when i see fit, just when i want

(chorus)

verse3 i'm perfect that's for sure, i stand
in a castle by myself, i am

(chorus)


Acoustic Slide Lead...

  [G]        [A#]    [G#]    [G]        [A#]     [C]                           [F]                             
--/7--------------/7--------------------------------------------------|
------/8--/6--4\------/8--/6--/6-\4-/6--/8/11-11-\10-\6-8\6----4/6\4--|
----------------------------------------------------------------------|
----------------------------------------------------------------------|
----------------------------------------------------------------------|
----------------------------------------------------------------------|


chord-ology...
[G7]     [A#7]      [G#7]      [C7]     [F7]         [D#]                                                       
-------------------------------------------------------|
-------------------------------------------------------|
-4----5-----5-----9----2--------8----------------------|
-3----6-----4-----8----1--------6----------------------|
-5----8-----6-----10---3--------8----------------------|
-3----6-----4-----8----1--------6----------------------|


method-ology...
 {---G7---------------|
----------------------|  all chords are played with this pick scheme
----------------------|  listen to the CD to see what i mean
---4-------4----------|
---3---3---3----------|
-------5--------------|
-3---3---3------------|				


Important: The song above is NOT stored on the Chordie server. The original song is hosted at www.guitaretab.com. Chordie works as a search engine and provides on-the-fly formatting. Chordie does not index songs against artists'/composers' will. To remove this song please click here.

Text color:
Chord color:
Chord grids: 
Font size:    
Page size: 

A# A#7 C C7 D# F F7 G G# G#7 G7
variations - click chord images

Login - add to songbook

Transpose chords

Tuning

Rating click stars to rate

Layout
Accuracy

SHARE PAGE  




You need to log in to post comments