Guitar Tabs, Chords and Lyrics


After World Obliteration   Damaged



================================================================================
         Title : After World Obliteration (Terrorizer cover)
        Artist : Damaged
         Album : Purified in Pain
Transcribed by : By DimeBolt (dime_bolt@email.com)
================================================================================

Tune down 1 step (D,G,F,C,A,D)

   Intro
1||--------------------||------------------||--------------------------|
2||--------------------||------------------||--------------------------|
3||--------------------||------------------||--------------------------|
4||--------------------||------------------||--------------------------|
5||-222222222222222222-||-22-255-522-25-/8-||-------222222------222222-|
6||-000000000000000000-||-00-033-300-03-/6-||-222222------222222-------|


1||--------------------------||------------------||--------------------||
2||--------------------------||------------------||--------------------||
3||--------------------------||------------------||--------------------||
4||--------------------------||-----54------43---||--------------------||
5||-------222222-------------||-2---32--3---21---||-2------------------||
6||-222222------111111000000-||-0-------1--------||-0-0000003^-04^-05^-||


1||--------------------------------||-----------------|-----------------||
2||--------------------------------||-----------------|-----------------||
3||--------------------------------||-----------------|-----------------||
4||--------------------------------||-----------------|-----------------||
5||--------------------------------||-22-255-522-25-4-|-22-255-522-25-8-||
6||-0000003/4/5/6660000003/4/5/666-||-00-033-300-03-2-|-00-033-300-03-6-||


1||------------------|------------------||
2||------------------|------------------||
3||------------------|------------------||
4||-----44-4----44-4-|-----44-4---------||
5||-44-422-244-422-2-|-44-422-233-322-2-||


Important: The song above is NOT stored on the Chordie server. The original song is hosted at www.guitaretab.com. Chordie works as a search engine and provides on-the-fly formatting. Chordie does not index songs against artists'/composers' will. To remove this song please click here.

This song is displayed as text-only. Transposing and tuning is only available for chordpro-songs.

Login - add to songbook

Rating click stars to rate

Layout
Accuracy

SHARE PAGE  




You need to log in to post comments