Guitar Tabs, Chords and Lyrics


Coconut Skins   Damien Rice



This is the correct tablature! The timing can be heard when you listen to the song. It's
pretty simple strum pattern once you get it down, thumb-picking the bass notes and
with the fingers.  On the left hand(for rightties), the 1st and 2nd fingers do all the 
while the 3rd and 4th are stationary for the whole song.
Tuning is standard.


e----3---3�---3-3-3----3-3-3----3-3-3-----3-3--3�-3-3-3-----3-3-3-----|
B----3---3----3-3-3----3-3-3----3-3-3-----3-3--3�-3-3-3-----3-3-3-----|
G----0---0----0-0-0----0-0-0----0-0-0-----0-0--0�-0-0-0-----0-0-0-----|
D----0---0----2-2-2----2-2-2----2-2-2-----2-2--0--0-0�0-----0-0-0-----|
A-------------2-2-2----2-2-2----2-2-2-----2-2-----2-2-2--0--2-2-2--0--|
E�-3---2-----0------2-0-----�2-0-------2-0----2--3--------3---------3-|


e-3-3-3----|
B-3-3-3----|
G-0-0-0----|
D-0-0-0----|
A-2-2-2--0-|


Important: The song above is NOT stored on the Chordie server. The original song is hosted at www.guitaretab.com. Chordie works as a search engine and provides on-the-fly formatting. Chordie does not index songs against artists/composers will. To remove this song please click here.

This song is displayed as text-only. Transposing and tuning is only available for chordpro-songs.

Login - add to songbook

Rating click stars to rate

Layout
Accuracy

SHARE PAGE  




You need to log in to post comments