Chordie logo


Shakin   Dandy Warhols



Intro
e|---------------------------------------------------------------------|
B|--3-3--3-3--3-3------------------------------------------------------|x4
G|-44-4-44-4-44-4------------------------------------------------------|
D|-44-4-44-4-44-4--55-4-3----------------------------------------------|
A|-22-2-22-2-22-2--55-4-3----------------------------------------------|
E|-----------------33-2-1----------------------------------------------|

Verse
e|---------------------------------------------------------------------|
B|--3-3--3-3--3-3------------------------------------------------------|
G|-44-4-44-4-44-4------------------------------------------------------|
D|-44-4-44-4-44-4--55-4-3----------------------------------------------|
A|-22-2-22-2-22-2--55-4-3----------------------------------------------|
E|-----------------33-2-1----------------------------------------------|

Chorus
e|----------------------------------------------------------|
B|----------------------------------------------------------|
G|----------------------------------------------------------|
D|--2222222---77777777----------999999-7/12-1212-10-12--8fb-|
A|--2222222---77777777--------------------------------------|
E|--0000000---55555555--------------------------------------|

Solo/ Bridge
e|---------------------------------------------------------------|
B|---------------------------------------------------------------|
G|---------------------------------12-12-10-9fb------------------|
D|--99999999-7-999999-7-9999999-7--------------------------------|
A|---------------------------------------------------------------|
E|---------------------------------------------------------------|



| /  slide up
| \  slide down
| h  hammer-on
| p  pull-off
| ~  vibrato
| +  harmonic
| x  Mute note


Important: The song above is NOT stored on the Chordie server. The original song is hosted at www.guitaretab.com. Chordie works as a search engine and provides on-the-fly formatting. Chordie does not index songs against artists/composers will. To remove this song please click here.

This song is displayed as text-only. Transposing and tuning is only available for chordpro-songs.

Login - add to songbook

Rating click stars to rate

Layout
Accuracy

SHARE PAGE  




You need to log in to post comments